Tabsvolo.net - Tablature : Pour faire court


 Les tablatures : 68

Chanson française (2017)

Sans rire (2013)

C'est pas tout ça... (2010)

En attendant (2009)

Bref... Septembre 2008

  • Ma p'tite chanson
  • J'espère...
  • Bref

Jours heureux (2007)

Blancs Manteaux à Volo (2006)

Bien Zarbos (2004)

Tablature : Pour faire court

19-10-2013

Partager cette tablature

Télécharger la version imprimable 


Ecouter un extrait composé de différentes parties de la tablature :



Légende :
||------|| (xN) : Jouer N fois la partie entre les ||
         D# (C) : Nom de l'accord (Nom de l'accord par rapport au capo)

Aide et conseils :
Dans cet arpège "à la Olivier", il y a quelques "ghosts". Certaines notes ne sont pas jouées ou très faiblement.
Ceci est difficile voire impossible à écrire... Ca restera selon le feeling et l'oreille de chacun ;-)


Capo 3

Intro :

     D# (C)        D# s4 (C s4)  Cm (Am)       Cm s4 (Am s4) Gm (Em)       Gm -9 (Em -9)
e ||-------------|-------0-----|-------------|-------0-----|-------------|-------0-----|
B ||-------1-----|-----1---1---|-------1-----|-----1---1---|-------0-----|-----0---0---|
G ||-----0---0---|---0-------0-|-----2---2---|---2-------0-|-----0---0---|---0-------0-|
D ||---2-------2-|-3-----------|---2-------2-|-0-----------|---2-------2-|-3-----------|
A ||-3-----------|-------------|-0-----------|-------------|-------------|-------------|
E ||-------------|-------------|-------------|-------------|-0-----------|-------------|

    G# f5 (F f5)  G#7 f5 (F7 f5)
e |-------------|-------0-----||
B |-------0-----|-----0---0---||
G |-----2---2---|---2-------0-|| (x2)
D |---3-------3-|-3-----------||
A |-------------|-------------||
E |-1-----------|-------------||

Couplets :

     D# (C)        D# s4 (C s4)  Cm (Am)       Cm s4 (Am s4) Gm (Em)       Gm -9 (Em -9)
e ||-------------|-------0-----|-------------|-------0-----|-------------|-------0-----|
B ||-------1-----|-----1---1---|-------1-----|-----1---1---|-------0-----|-----0---0---|
G ||-----0---0---|---0-------0-|-----2---2---|---2-------0-|-----0---0---|---0-------0-|
D ||---2-------2-|-3-----------|---2-------2-|-0-----------|---2-------2-|-3-----------|
A ||-3-----------|-------------|-0-----------|-------------|-------------|-------------|
E ||-------------|-------------|-------------|-------------|-0-----------|-------------|

    G# f5 (F f5)  G#7 f5 (F7 f5)
e |-------------|-------0-----||
B |-------0-----|-----0---0---||
G |-----2---2---|---2-------0-|| (x2)
D |---3-------3-|-3-----------||
A |-------------|-------------||
E |-1-----------|-------------||

Pré refrains :

    A# (G)                      G# f5 (F f5)                Fm (Dm)
e |-------------|-------3-----|-------------|-------0-----|-------1-----|-------1-----|
B |-------0-----|-----0---0---|-------0-----|-----0---0---|-----3---3---|-----3---3---|
G |-----0---0---|---0-------0-|-----2---2---|---2-------2-|---2-------2-|---2-------0-|
D |---0-------0-|-0-----------|---3-------3-|-3-----------|-0-----------|-0-----------|
A |-------------|-------------|-------------|-------------|-------------|-------------|
E |-3-----------|-------------|-1-----------|-------------|-------------|-------------|

    A#7 (G7)
e |-------1-----|-------------|
B |-------------|-------0-----|
G |-----0---0---|-----0---0---|
D |---0-------0-|---0-------0-|
A |-------------|-------------|
E |-3-----------|-3-----------|

Refrains 1 et 2 :


    Cm (Am)       Gm (Em)       F (C)         A#7 (G7)
e |-------------|-------0-----|-------------|-------1-----|
B |-------1-----|-----0---0---|-------1-----|-------------|
G |-----2---2---|---0-------0-|-----0---0---|-----0---0---|
D |---2-------2-|-2-----------|---2-------0-|---0-------0-|
A |-0-----------|-------------|-3-----------|-------------|
E |-------------|-------------|-------------|-3-----------|

    Cm (Am)       Gm (Em)       F (C)         A#7 (G7)
e |-------------|-------0-----|-------------|-------------|
B |-------1-----|-----0---0---|-------1-----|-------0-----|
G |-----2---2---|---0-------0-|-----0---0---|-----0---0---|
D |---2-------2-|-2-----------|---2-------0-|---0-------0-|
A |-0-----------|-------------|-3-----------|-------------|
E |-------------|-------------|-------------|-3-----------|

    Cm (Am)       Gm (Em)       F (C)         A#7 (G7)
e |-------------|-------0-----|-------------|-------1-----|
B |-------1-----|-----0---0---|-------1-----|-------------|
G |-----2---2---|---0-------0-|-----0---0---|-----0---0---|
D |---2-------2-|-2-----------|---2-------0-|---0-------0-|
A |-0-----------|-------------|-3-----------|-------------|
E |-------------|-------------|-------------|-3-----------|

    Cm (Am)       Gm (Em)       F (C)         A# (G)
e |-------------|-------0-----|-------------|-------------|-------3-----|-------------|-------3-----|
B |-------1-----|-----0---0---|-------1-----|-------0-----|-------------|-------0-----|-------------|
G |-----2---2---|---0-------0-|-----0---0---|-----0---0---|-----0---0---|-----0---0---|-----0---0---|
D |---2-------2-|-2-----------|---2-------0-|---0-------0-|---0-------0-|---0-------0-|---0-------0-|
A |-0-----------|-------------|-3-----------|-------------|-------------|-------------|-------------|
E |-------------|-------------|-------------|-3-----------|-3-----------|-3-----------|-3-----------|

Pont (juste après le 2ème refrain) :

     D# (C)                      Cm (Am)                     Gm (Em)
e ||-------------|-------0-----|-------------|-------0-----|-------------|-------0-----|
B ||-------1-----|-----1---1---|-------1-----|-----1---1---|-------0-----|-----0---0---|
G ||-----0---0---|---0-------0-|-----2---2---|---2-------0-|-----0---0---|---0-------0-|
D ||---2-------2-|-2-----------|---2-------2-|-2-----------|---2-------2-|-2-----------|
A ||-3-----------|-------------|-0-----------|-------------|-------------|-------------|
E ||-------------|-------------|-------------|-------------|-0-----------|-------------|

    G# f5 (F f5)  G#7 f5 (F7 f5)
e |-------------|-------0-----||
B |-------0-----|-----0---0---||
G |-----2---2---|---2-------0-|| (x2)
D |---3-------3-|-3-----------||
A |-------------|-------------||
E |-1-----------|-------------||

Dernier refrain et fin :


     Cm (Am)      Gm (Em)       F (C)         A#7 (G7)
e |-------------|-------0-----|-------------|-------1-----|
B |-------1-----|-----0---0---|-------1-----|-------------|
G |-----2---2---|---0-------0-|-----0---0---|-----0---0---|
D |---2-------2-|-2-----------|---2-------0-|---0-------0-|
A |-0-----------|-------------|-3-----------|-------------|
E |-------------|-------------|-------------|-3-----------|

     Cm (Am)      Gm (Em)       F (C)         A#7 (G7)
e |-------------|-------0-----|-------------|-------------|
B |-------1-----|-----0---0---|-------1-----|-------0-----|
G |-----2---2---|---0-------0-|-----0---0---|-----0---0---|
D |---2-------2-|-2-----------|---2-------0-|---0-------0-|
A |-0-----------|-------------|-3-----------|-------------|
E |-------------|-------------|-------------|-3-----------|

     Cm (Am)      Gm (Em)       F (C)         A#7 (G7)
e |-------------|-------0-----|-------------|-------1-----|
B |-------1-----|-----0---0---|-------1-----|-------------|
G |-----2---2---|---0-------0-|-----0---0---|-----0---0---|
D |---2-------2-|-2-----------|---2-------0-|---0-------0-|
A |-0-----------|-------------|-3-----------|-------------|
E |-------------|-------------|-------------|-3-----------|

     Cm (Am)      Gm (Em)       F (C)         A# (G)
e |-------------|-------0-----|-------------|-------------|-------3-----|------0------|-------------||
B |-------1-----|-----0---0---|-------1-----|-------0-----|-------------|-----1-------|-------------||
G |-----2---2---|---0-------0-|-----0---0---|-----0---0---|-----0---0---|----0--------|-------------||
D |---2-------2-|-2-----------|---2-------0-|---0-------0-|---0-------0-|---2---------|-------------||
A |-0-----------|-------------|-3-----------|-------------|-------------|--3----------|-------------||
E |-------------|-------------|-------------|-3-----------|-3-----------|-0-----------|-------------||



Paroles

T'avais le sens du non-dit
A ne pas prendre au pied d'la lettre
Et tu conjuguais tout en si
Pour t'accorder à mes peut-être
Tu m'apprenais au naturel
A ne pas en attendre trop
Je faisais rien que d'trouver belle
Et tu m'as rendu beau

Et comme j'm'en fous d'avoir l'air bête
Et que j'suis loin d'être glamour
Comme j'n'ai plus peur d'être honnête
Et pour faire court

Je t'aime mon amour
Je t'aime mon amour

T'avais bien d'autres que moi
Pour ne rien faire en dilettante
Et ça ne te regardais pas
Si j'étais long à la détente
Tu m'apprenais à être nous
Sans en attendre trop
Je croyais être flou
Et tu m'as rendu beau

Et comme j'm'en fous d'être un poète
Et que je suis légèrement lourd
Juste au-d'ssus du ras des pâqu'rettes
Et pour faire court

Je t'aime mon amour
Je t'aime mon amour

Tu n'as pas pris quatre chemins
Pour éviter que l'on se gâche
Et comme tu sais que tout nous tient
Qu'à la façon dont on s'attache
En apprenant à être heureux
Sans en attendre trop
Pour ne plus faire que de non-lieux
Tant tu m'as rendu beau

Et comme j'm'en voudrais d'être en reste
Et que ça vaut tous les discours
Juste pour la beauté du geste
Et pour faire court

Je t'aime mon amour
Je t'aime mon amour