Tabsvolo.net - Tablature : Allons enfants


 Les tablatures : 68

Chanson française (2017)

Sans rire (2013)

C'est pas tout ça... (2010)

En attendant (2009)

Bref... Septembre 2008

  • Ma p'tite chanson
  • J'espère...
  • Bref

Jours heureux (2007)

Blancs Manteaux à Volo (2006)

Bien Zarbos (2004)

Tablature : Allons enfants

21-09-2013

Partager cette tablature

Télécharger la version imprimable 


Ecouter un extrait composé de différentes parties de la tablature :



Légende :
||------|| (xN) : Jouer N fois la partie entre les ||

Aide et conseils :
Dans cet arpège pas nouveau, à la Olivier, il y a quelques "ghosts", certaines notes ne sont pas jouées ou très faiblement.
Ceci est difficile voire impossible à écrire... Ca restera selon le feeling de chacun ;-)

Intro :

     Dm                                  G6
e ||-----------------|-----------------|--------------|---------------||
B ||---------10------|---------10------|--------8-----|--------8------||
G ||------10----10---|------10----10---|------9---9---|------9--------|| (x3)
D ||----0----------0-|----0----------0-|----0-------0-|----0-----10---||
A ||-----------------|-----------------|--------------|---------------||
E ||-10--------------|-10--------------|-10-----------|-10------------||

    Dm                                  G6
e |-----------------|-----------------|--------------|---------------|
B |---------10------|---------10------|--------8-----|---------------|
G |------10----10---|------10----10---|------9---9---|---------------|
D |----0----------0-|----0----------0-|----0-------0-|---------------|
A |-----------------|-----------------|--------------|---------------|
E |-10--------------|-10--------------|-10-----------|-10------------|

Couplets 1 et 2 :

     Dm                                  G6
e ||-----------------|-----------------|--------------|---------------||
B ||---------10------|---------10------|--------8-----|--------8------||
G ||------10----10---|------10----10---|------9---9---|------9--------|| (x2)
D ||----0----------0-|----0----------0-|----0-------0-|----0-----10---||
A ||-----------------|-----------------|--------------|---------------||
E ||-10--------------|-10--------------|-10-----------|-10------------||

    A#                          Gm
e |-------------|-------6-----|-------------------|----------10-------|
B |-------6-----|-------------|----------11-------|-------------------|
G |-----7---7---|-----7---7---|-------12----12----|-------12----12----|
D |---8-------8-|---8-------8-|----12----------12-|----12----------12-|
A |-------------|-------------|-10----------------|-10----------------|
E |-6-----------|-6-----------|-------------------|-------------------|

    A
e |-------------|-------5-----|-------------|-------5-----|
B |-------5-----|-------------|-------5-----|-------------|
G |-----6---6---|-----6---6---|-----6---6---|-----6---6---|
D |---7-------7-|---7-------7-|---7-------7-|---7-------0-|
A |-------------|-------------|-------------|-------------|
E |-5-----------|-5-----------|-5-----------|-5-----------|

Reprendre le tout 3 fois.

Refrain 1 :

     Dm                                  G6
e ||-----------------|-----------------|--------------|---------------||
B ||---------10------|---------10------|--------8-----|--------8------||
G ||------10----10---|------10----10---|------9---9---|------9--------|| (x3)
D ||----0----------0-|----0----------0-|----0-------0-|----0-----10---||
A ||-----------------|-----------------|--------------|---------------||
E ||-10--------------|-10--------------|-10-----------|-10------------||

    Dm                                  G6
e |-----------------|-----------------|--------------|---------------|
B |---------10------|---------10------|--------8-----|---------------|
G |------10----10---|------10----10---|------9---9---|---------------|
D |----0----------0-|----0----------0-|----0-------0-|---------------|
A |-----------------|-----------------|--------------|---------------|
E |-10--------------|-10--------------|-10-----------|-10------------|

Refrain 2 :

     Dm                                  G6
e ||-----------------|-----------------|--------------|---------------||
B ||---------10------|---------10------|--------8-----|--------8------||
G ||------10----10---|------10----10---|------9---9---|------9--------|| (x4)
D ||----0----------0-|----0----------0-|----0-------0-|----0-----10---||
A ||-----------------|-----------------|--------------|---------------||
E ||-10--------------|-10--------------|-10-----------|-10------------||

FIN :

     Dm                                  G6
e ||-----------------|-----------------|--------------|---------------||
B ||---------10------|---------10------|--------8-----|--------8------||
G ||------10----10---|------10----10---|------9---9---|------9--------|| (x2)
D ||----0----------0-|----0----------0-|----0-------0-|----0-----10---||
A ||-----------------|-----------------|--------------|---------------||
E ||-10--------------|-10--------------|-10-----------|-10------------||

    A#                          Gm
e |-------------|-------6-----|-------------------|----------10-------|
B |-------6-----|-------------|----------11-------|-------------------|
G |-----7---7---|-----7---7---|-------12----12----|-------12----12----|
D |---8-------8-|---8-------8-|----12----------12-|----12----------12-|
A |-------------|-------------|-10----------------|-10----------------|
E |-6-----------|-6-----------|-------------------|-------------------|

    A
e |-------------|-------5-----|-------------|-------5-----|
B |-------5-----|-------------|-------5-----|-------------|
G |-----6---6---|-----6---6---|-----6---6---|-----6---6---|
D |---7-------7-|---7-------7-|---7-------7-|---7-------0-|
A |-------------|-------------|-------------|-------------|
E |-5-----------|-5-----------|-5-----------|-5-----------|

Reprendre le tout 4 fois.

     Dm                                  G6
e ||-----------------|-----------------|--------------|---------------||
B ||---------10------|---------10------|--------8-----|--------8------||
G ||------10----10---|------10----10---|------9---9---|------9--------|| (x2)
D ||----0----------0-|----0----------0-|----0-------0-|----0-----10---||
A ||-----------------|-----------------|--------------|---------------||
E ||-10--------------|-10--------------|-10-----------|-10------------||

    Dm                                  G6
e |-----------------|-----------------|--------------|---------------||
B |---------10------|---------10------|--------8-----|---------------||
G |------10----10---|------10----10---|------9-------|---------------||
D |----0----------0-|----0----------0-|----0---------|---------------||
A |-----------------|-----------------|--------------|---------------||
E |-10--------------|-10--------------|-10-----------|---------------||



Paroles

Allons enfants de la fratrie
Des pages d'histoire à espérer
Contre nous de la tyrannie
Des étendards à élever
Entendez-vous dans leurs campagnes
Rugir leurs féroces slogans ?
Et dans nos villes et nos campagnes
Nos espoirs réduits à néant ?
Allons enfants de la fratrie
Des belles victoires à partager
Contre nous de la tyrannie
Du désespoir à supporter

Entendez-vous "Aux armes citoyens !" ?

Allons enfants de la fratrie
Des contre-pouvoirs à exercer
Contre nous de la tyrannie
Des jours de gloire à honorer
Entendez-vous dans leurs discours
Surgir leurs funestes desseins ?
Et dans nos villes et leurs faubourgs
La misère gagner du terrain ?
Allons enfants de la fratrie
Des pas vaincus rêvant encore
Contre nous de la tyrannie
De la loi du plus fort

Entendez-vous «Aux armes citoyens !" ?