Tabsvolo.net - Tablature : J'ai R'trouvé


 Les tablatures : 68

Chanson française (2017)

Sans rire (2013)

C'est pas tout ça... (2010)

En attendant (2009)

Bref... Septembre 2008

  • Ma p'tite chanson
  • J'espère...
  • Bref

Jours heureux (2007)

Blancs Manteaux à Volo (2006)

Bien Zarbos (2004)

Tablature : J'ai R'trouvé

Partager cette tablature

Télécharger la version imprimable
Télécharger la tablature guitare de Hugues Barbet







Ecouter un extrait composé de différentes parties de la tablature :



Légende :
||----|| (x2)
: Rejouer la partie bornée par des doubles barres.

Intro :


     Am        G          Dm      F         Am        G          F
e ||--------------------|-----------------|--------------------|-----------------|
B ||---1---------0------|---6---6---1---1-|---1---------0------|---1---1---1---1-|
G ||---2---------0------|---7---7---2---2-|---2---------0------|---2---2---2---2-|
D ||------2-0-------2-3-|-----7-----------|------2-0-------2-3-|-----------------|
A ||-0------------------|-5-----------3---|-0------------------|-----3-------3---|
E ||-----------3--------|---------1-------|-----------3--------|-1-------1-------|

    Am        G          Dm      F         G                 G#
e |--------------------|-----------------|-----------------|-----------------|
B |---1---------0------|---6---6---1---1-|---3---3---3---3-|---4---4---4---4-|
G |---2---------0------|---7---7---2---2-|---4---4---4---4-|---5---5---5---5-|
D |------2-0-------2-3-|-----7-----------|-----------------|-----------------|
A |-0------------------|-5-----------3---|-----5-------5---|-----6-------6---|
E |-----------3--------|---------1-------|-3-------3-------|-4-------4-------|


Couplet :


     C                                       Em
e ||-------------------|-------------------|-----------------|-----------------|
B ||---8----8---8----8-|---8----8---8----8-|---8---8---8---8-|---8---8---8---8-|
G ||---9----9---9----9-|---9----9---9----9-|---9---9---9---9-|---9---9---9---9-|
D ||-------------------|-------------------|-----9-------9---|-----9-------9---|
A ||-----10-------10---|-----10-------10---|-7-------7-------|-7-------7-------|
E ||-8--------8--------|-8--------8--------|-----------------|-----------------|

     F7                                             G#
e |-----------------------|-----------------------|-----------------|-----------------||
B |---10----10---10----10-|---10----10---10----10-|---4---4---4---4-|---4---4---4---4-||
G |---9-----9----9-----9--|---9-----9----9-----9--|---5---5---5---5-|---5---5---5---5-||
D |------10---------10----|------10---------10----|-----------------|-----------------||
A |-8----------8----------|-8----------8----------|-----6-------6---|-----6-------6---||
E |-----------------------|-----------------------|-4-------4-------|-4-------4-------||

  (x2)

Refrain :


    F                 Dm                G
e |-----------------|-----------------|-----------------|
B |---1---1---1---1-|---6---6---6---6-|---3---3---3---3-|
G |---2---2---2---2-|---7---7---7---7-|---4---4---4---4-|
D |-----------------|-----7-------7---|-----------------|
A |-----3-------3---|-5-------5-------|-----5-------5---|
E |-1-------1-------|-----------------|-3-------3-------|

    Am        G          Dm      F         Am        G          F
e |--------------------|-----------------|--------------------|-----------------|
B |---1---------0------|---6---6---1---1-|---1---------0------|---1---1---1---1-|
G |---2---------0------|---7---7---2---2-|---2---------0------|---2---2---2---2-|
D |------2-0-------2-3-|-----7-----------|------2-0-------2-3-|-----------------|
A |-0------------------|-5-----------3---|-0------------------|-----3-------3---|
E |-----------3--------|---------1-------|-----------3--------|-1-------1-------|


Ca part en rythmique... Là c'est chacun pour soi ! Je représente ce que je pense être les temps fort du "grattage". Mais bon, c'est un peu Ad libitum ;-)

    G
e |----3----3-3-------3----3-3---|
B |----3----3-3-------3----3-3---|
G |----4----4-4-------4----4-4---|
D |-5--5----5-5----5--5----5-5---|
A |-5--5----5-5----5--5----5-5---|
E |-3--3----3-3----3--3----3-3---|


Couplet :


     C
e ||-----8-----8--8---------8-----8--8----|-----8-----8--8---------8-----8--8----|
B ||-----8-----8--8---------8-----8--8----|-----8-----8--8---------8-----8--8----|
G ||-----9-----9--9---------9-----9--9----|-----9-----9--9---------9-----9--9----|
D ||-10--10----10-10----10--10----10-10---|-10--10----10-10----10--10----10-10---|
A ||-10--10----10-10----10--10----10-10---|-10--10----10-10----10--10----10-10---|
E ||-8---8-----8--8-----8---8-----8--8----|-8---8-----8--8-----8---8-----8--8----|

    Em
e |----7----7-7-------7----7-7---|----7----7-7-------7----7-7---|
B |----8----8-8-------8----8-8---|----8----8-8-------8----8-8---|
G |----9----9-9-------9----9-9---|----9----9-9-------9----9-9---|
D |-9--9----9-9----9--9----9-9---|-9--9----9-9----9--9----9-9---|
A |-7--7----7-7----7--7----7-7---|-7--7----7-7----7--7----7-7---|
E |-7--7----7-7----7--7----7-7---|-7--7----7-7----7--7----7-7---|

    F7
e |-----8-----8--8---------8-----8--8----|-----8-----8--8---------8-----8--8----|
B |-----10----10-10--------10----10-10---|-----10----10-10--------10----10-10---|
G |-----9-----9--9---------9-----9--9----|-----9-----9--9---------9-----9--9----|
D |-10--10----10-10----10--10----10-10---|-10--10----10-10----10--10----10-10---|
A |-8---8-----8--8-----8---8-----8--8----|-8---8-----8--8-----8---8-----8--8----|
E |-8---8-----8--8-----8---8-----8--8----|-8---8-----8--8-----8---8-----8--8----|

    G#
e |----4----4-4-------4----4-4---|----4----4-4-------4----4-4---||
B |----4----4-4-------4----4-4---|----4----4-4-------4----4-4---||
G |----5----5-5-------5----5-5---|----5----5-5-------5----5-5---|| (x2)
D |-6--6----6-6----6--6----6-6---|-6--6----6-6----6--6----6-6---||
A |-6--6----6-6----6--6----6-6---|-6--6----6-6----6--6----6-6---||
E |-4--4----4-4----4--4----4-4---|-4--4----4-4----4--4----4-4---||


Refrain :


    F                              Dm
e |----1----1-1-------1----1-1---|----5----5-5-------5----5-5---|
B |----1----1-1-------1----1-1---|----6----6-6-------6----6-6---|
G |----2----2-2-------2----2-2---|----7----7-7-------7----7-7---|
D |-3--3----3-3----3--3----3-3---|-7--7----7-7----7--7----7-7---|
A |-3--3----3-3----3--3----3-3---|-5--5----5-5----5--5----5-5---|
E |-1--1----1-1----1--1----1-1---|-5--5----5-5----5--5----5-5---|

    G
e |----3----3-3-------3----3-3---|
B |----3----3-3-------3----3-3---|
G |----4----4-4-------4----4-4---|
D |-5--5----5-5----5--5----5-5---|
A |-5--5----5-5----5--5----5-5---|
E |-3--3----3-3----3--3----3-3---|

    Am              G               Dm              F
e |----5----5-5---|----3----3-3---|----5----5-5---|----1----1-1---|
B |----5----5-5---|----3----3-3---|----6----6-6---|----1----1-1---|
G |----5----5-5---|----4----4-4---|----7----7-7---|----2----2-2---|
D |-7--7----7-7---|-5--5----5-5---|-7--7----7-7---|-3--3----3-3---|
A |-7--7----7-7---|-5--5----5-5---|-5--5----5-5---|-3--3----3-3---|
E |-5--5----5-5---|-3--3----3-3---|-5--5----5-5---|-1--1----1-1---|

    Am              G               F
e |----5----5-5---|----3----3-3---|----1----1-1-------1----1-1---|
B |----5----5-5---|----3----3-3---|----1----1-1-------1----1-1---|
G |----5----5-5---|----4----4-4---|----2----2-2-------2----2-2---|
D |-7--7----7-7---|-5--5----5-5---|-3--3----3-3----3--3----3-3---|
A |-7--7----7-7---|-5--5----5-5---|-3--3----3-3----3--3----3-3---|
E |-5--5----5-5---|-3--3----3-3---|-1--1----1-1----1--1----1-1---|

    G
e |----3----3-3-------3----3-3---|
B |----3----3-3-------3----3-3---|
G |----4----4-4-------4----4-4---|
D |-5--5----5-5----5--5----5-5---|
A |-5--5----5-5----5--5----5-5---|
E |-3--3----3-3----3--3----3-3---|


Pont : Solo ! ;-) (Mêmes accords que les couplets)


     C
e ||-----8-----8--8---------8-----8--8----|-----8-----8--8---------8-----8--8----|
B ||-----8-----8--8---------8-----8--8----|-----8-----8--8---------8-----8--8----|
G ||-----9-----9--9---------9-----9--9----|-----9-----9--9---------9-----9--9----|
D ||-10--10----10-10----10--10----10-10---|-10--10----10-10----10--10----10-10---|
A ||-10--10----10-10----10--10----10-10---|-10--10----10-10----10--10----10-10---|
E ||-8---8-----8--8-----8---8-----8--8----|-8---8-----8--8-----8---8-----8--8----|

    Em
e |----7----7-7-------7----7-7---|----7----7-7-------7----7-7---|
B |----8----8-8-------8----8-8---|----8----8-8-------8----8-8---|
G |----9----9-9-------9----9-9---|----9----9-9-------9----9-9---|
D |-9--9----9-9----9--9----9-9---|-9--9----9-9----9--9----9-9---|
A |-7--7----7-7----7--7----7-7---|-7--7----7-7----7--7----7-7---|
E |-7--7----7-7----7--7----7-7---|-7--7----7-7----7--7----7-7---|

    F7
e |-----8-----8--8---------8-----8--8----|-----8-----8--8---------8-----8--8----|
B |-----10----10-10--------10----10-10---|-----10----10-10--------10----10-10---|
G |-----9-----9--9---------9-----9--9----|-----9-----9--9---------9-----9--9----|
D |-10--10----10-10----10--10----10-10---|-10--10----10-10----10--10----10-10---|
A |-8---8-----8--8-----8---8-----8--8----|-8---8-----8--8-----8---8-----8--8----|
E |-8---8-----8--8-----8---8-----8--8----|-8---8-----8--8-----8---8-----8--8----|

    G#
e |----4----4-4-------4----4-4---|----4----4-4-------4----4-4---||
B |----4----4-4-------4----4-4---|----4----4-4-------4----4-4---||
G |----5----5-5-------5----5-5---|----5----5-5-------5----5-5---|| (x2)
D |-6--6----6-6----6--6----6-6---|-6--6----6-6----6--6----6-6---||
A |-6--6----6-6----6--6----6-6---|-6--6----6-6----6--6----6-6---||
E |-4--4----4-4----4--4----4-4---|-4--4----4-4----4--4----4-4---||

Changer le gratter à la fin de la seconde fois pour marquer le passage en arpège...

Dernier couplet :


    C                                       Em
e |-------------------|-------------------|-----------------|-----------------|
B |---8----8---8----8-|---8----8---8----8-|---8---8---8---8-|---8---8---8---8-|
G |---9----9---9----9-|---9----9---9----9-|---9---9---9---9-|---9---9---9---9-|
D |-------------------|-------------------|-----9-------9---|-----9-------9---|
A |-----10-------10---|-----10-------10---|-7-------7-------|-7-------7-------|
E |-8--------8--------|-8--------8--------|-----------------|-----------------|

    F7                                               G#
e |-----------------------|-----------------------||-----4----4-4-------4----4-4---||
B |---10----10---10----10-|---10----10---10----10-||-----4----4-4-------4----4-4---||
G |---9-----9----9-----9--|---9-----9----9-----9--||-----5----5-5-------5----5-5---|| (x2)
D |------10---------10----|------10---------10----||(6)--6----6-6----6--6----6-6---||
A |-8----------8----------|-8----------8----------||(6)--6----6-6----6--6----6-6---||
E |-----------------------|-----------------------||(4)--4----4-4----4--4----4-4---||

    C
e |-----8-----8--8---------8-----8--8----|-----8-----8--8---------8-----8--8----|
B |-----8-----8--8---------8-----8--8----|-----8-----8--8---------8-----8--8----|
G |-----9-----9--9---------9-----9--9----|-----9-----9--9---------9-----9--9----|
D |-10--10----10-10----10--10----10-10---|-10--10----10-10----10--10----10-10---|
A |-10--10----10-10----10--10----10-10---|-10--10----10-10----10--10----10-10---|
E |-8---8-----8--8-----8---8-----8--8----|-8---8-----8--8-----8---8-----8--8----|

    Em
e |----7----7-7-------7----7-7---|----7----7-7-------7----7-7---|
B |----8----8-8-------8----8-8---|----8----8-8-------8----8-8---|
G |----9----9-9-------9----9-9---|----9----9-9-------9----9-9---|
D |-9--9----9-9----9--9----9-9---|-9--9----9-9----9--9----9-9---|
A |-7--7----7-7----7--7----7-7---|-7--7----7-7----7--7----7-7---|
E |-7--7----7-7----7--7----7-7---|-7--7----7-7----7--7----7-7---|

    F7
e |-----8-----8--8---------8-----8--8----|-----8-----8--8---------8-----8--8----|
B |-----10----10-10--------10----10-10---|-----10----10-10--------10----10-10---|
G |-----9-----9--9---------9-----9--9----|-----9-----9--9---------9-----9--9----|
D |-10--10----10-10----10--10----10-10---|-10--10----10-10----10--10----10-10---|
A |-8---8-----8--8-----8---8-----8--8----|-8---8-----8--8-----8---8-----8--8----|
E |-8---8-----8--8-----8---8-----8--8----|-8---8-----8--8-----8---8-----8--8----|

    G#
e |----4----4-4-------4----4-4---|----4----4-4-------4----4-4---|
B |----4----4-4-------4----4-4---|----4----4-4-------4----4-4---|
G |----5----5-5-------5----5-5---|----5----5-5-------5----5-5---|
D |-6--6----6-6----6--6----6-6---|-6--6----6-6----6--6----6-6---|
A |-6--6----6-6----6--6----6-6---|-6--6----6-6----6--6----6-6---|
E |-4--4----4-4----4--4----4-4---|-4--4----4-4----4--4----4-4---|


Dernier Refrain :


    F                              Dm
e |----1----1-1-------1----1-1---|----5----5-5-------5----5-5---|
B |----1----1-1-------1----1-1---|----6----6-6-------6----6-6---|
G |----2----2-2-------2----2-2---|----7----7-7-------7----7-7---|
D |-3--3----3-3----3--3----3-3---|-7--7----7-7----7--7----7-7---|
A |-3--3----3-3----3--3----3-3---|-5--5----5-5----5--5----5-5---|
E |-1--1----1-1----1--1----1-1---|-5--5----5-5----5--5----5-5---|

    G                              Am
e |----3----3-3-------3----3-3---|----5----5-5-------5----5-5---|
B |----3----3-3-------3----3-3---|----5----5-5-------5----5-5---|
G |----4----4-4-------4----4-4---|----5----5-5-------5----5-5---|
D |-5--5----5-5----5--5----5-5---|-7--7----7-7----7--7----7-7---|
A |-5--5----5-5----5--5----5-5---|-7--7----7-7----7--7----7-7---|
E |-3--3----3-3----3--3----3-3---|-5--5----7-7----5--5----5-5---|

    F                              Dm
e |----1----1-1-------1----1-1---|----5----5-5-------5----5-5---|
B |----1----1-1-------1----1-1---|----6----6-6-------6----6-6---|
G |----2----2-2-------2----2-2---|----7----7-7-------7----7-7---|
D |-3--3----3-3----3--3----3-3---|-7--7----7-7----7--7----7-7---|
A |-3--3----3-3----3--3----3-3---|-5--5----5-5----5--5----5-5---|
E |-1--1----1-1----1--1----1-1---|-5--5----5-5----5--5----5-5---|

    G
e |----3----3-3-------3----3-3---|----3----3-3-------3----3-3---|
B |----3----3-3-------3----3-3---|----3----3-3-------3----3-3---|
G |----4----4-4-------4----4-4---|----4----4-4-------4----4-4---|
D |-5--5----5-5----5--5----5-5---|-5--5----5-5----5--5----5-5---|
A |-5--5----5-5----5--5----5-5---|-5--5----5-5----5--5----5-5---|
E |-3--3----3-3----3--3----3-3---|-3--3----3-3----3--3----3-3---|


Fin :


     C                   Em              F7                  G#
e ||-----8-----8--8----|----7----7-7---|-----8-----8--8----|----4----4-4---||
B ||-----8-----8--8----|----8----8-8---|-----10----10-10---|----4----4-4---||
G ||-----9-----9--9----|----9----9-9---|-----9-----9--9----|----5----5-5---|| (x2 ou plus)
D ||-10--10----10-10---|-9--9----9-9---|-10--10----10-10---|-6--6----6-6---|| selon
A ||-10--10----10-10---|-7--7----7-7---|-8---8-----8--8----|-6--6----6-6---|| l'envie ;)
E ||-8---8-----8--8----|-7--7----7-7---|-8---8-----8--8----|-4--4----4-4---||

    F               C
e |-1----------|----8--||
B |-1----------|----8--||
G |-2----------|----9--||
D |-3----------|----10-||
A |-3----------|----10-||
E |-1----------|----8--||


Paroles


Je revois mes années, sur un banc, lycéen
Le paquet d’clope à dix francs, les copines la Jenlain
J’nous r’vois nous cotiser à trois sur une barrette
J’ai retrouvé ma boulette

Je revois mes années les cours et la vingtaine
La coloc, les soirées tous les jours de la s’maine
J’me r’vois à la r’chercher à quatre pattes sur la moquette
J’ai retrouvé ma boulette

Refrain :
Dans un vieux sac à dos gris qu’j’allais j’ter à la déchet’rie
J’ai r’trouvé un p’tit bout d’ma vie

Je revois mes années, pas d’pognon, p’tits boulots
Un peu paumé à squatter pas très bien dans ma parano
J’me r’vois à la planquer dans le fond de ma chaussette
J’ai retrouvé ma boulette

Je revois mes années amoureux on emménage
A fumer tous les deux sur notre petit nuage
J’me r’vois à la ranger dans une grosse boite d’allumettes
J’ai retrouvé ma boulette

Refrain :
Dans un vieux sac à dos gris qu’j’allais j’ter à la déchet’rie
J’ai r’trouvé un p’tit bout d’ma vie


Je revois mes années les couches et le bib’ron
La balançoire et les premiers coups d’pieds dans l’ballon
J’me r’vois à décider à côté de la poussette
J’ai retrouvé ma boulette

Je revois mes années les copains et la fumette
Aujourd’hui si j’ai arrêté j’peux pas dire que j’regrette
Feuilles à rouler les fous rires et même quand on avait l’air bête
J’ai retrouvé ma boulette

Refrain et fin :
Dans un vieux sac à dos gris qu’j’allais j’ter à la déchet’rie
J’ai r’trouvé un p’tit bout d’ma vie
Dans un vieux sac à dos gris qu’j’allais j’ter à la déchet’rie