Tabsvolo.net - Tablature : Un p'tit peu


 Les tablatures : 68

Chanson française (2017)

Sans rire (2013)

C'est pas tout ça... (2010)

En attendant (2009)

Bref... Septembre 2008

  • Ma p'tite chanson
  • J'espère...
  • Bref

Jours heureux (2007)

Blancs Manteaux à Volo (2006)

Bien Zarbos (2004)

Tablature : Un p'tit peu

Rev. 02 | 18-02-2010

Télécharger la version imprimable
Conseils : Bien écouter la musique pour le marquage des temps forts...

Légende :
||----|| (x2)
: Rejouer la partie bornée par des doubles barres.


Intro :
     Em                        C                         Bm
e ||-------------------0-----|-------------------------|-------2-----------------|
B ||-------0-----------0-----|-------1-----------3^1---|-------3-----------3-----|
G ||-----0-----------0-------|-----0-----------0-0-----|-----4-----------4-------|
D ||---2-------2---2-------0-|---2-------2---2-------0-|---4-------4---4-------4-|
A ||-------------------------|-3-----------3-----------|-2-----------2-----------|
E ||-0-----------0-----------|-------------------------|-------------------------|

e |-------------|-------------||
B |-------0-----|-------0-----||
G |-----4-------|-----4---0---|| (x2)
D |---5-------5-|---5-------4-||
A |-3-----------|-2-----------||
E |-------------|-------------||


1er couplet :
     Em                        C                         Bm
e ||-------------------0-----|-------------------------|-------2-----------------|
B ||-------0-----------0-----|-------1-----------3^1---|-------3-----------3-----|
G ||-----0-----------0-------|-----0-----------0-0-----|-----4-----------4-------|
D ||---2-------2---2-------0-|---2-------2---2-------0-|---4-------4---4-------4-|
A ||-------------------------|-3-----------3-----------|-2-----------2-----------|
E ||-0-----------0-----------|-------------------------|-------------------------|

e |-------------|-------------||
B |-------0-----|-------0-----||
G |-----4-------|-----0---0---|| (x4)
D |---2-------0-|---4-------0-||
A |-3-----------|-2-----------||
E |-------------|-------------||


Refrain :
    G                         F#                        A   >
e |-------------------3-----|-------------------2-----|-5-5-5-5-------|
B |-------0-----------0-----|-------2-----------2-----|-5-5-5-5-------|
G |-----0-----------0-------|-----3-----------3---x---|-6-6-6-6-------|
D |---0-------0---0-------0-|---4-------4---4-------x-|-7-7-7-7-------|
A |-------------------------|-------------------------|-7-7-7-7-------|
E |-3-----------3-----------|-2-----------2-----------|-5-5-5-5-------|

e |-------------|-------------|
B |-------0-----|-------0-----|
G |-----4-------|-----4---0---|
D |---5-------5-|---5-------4-|
A |-3-----------|-2-----------|
E |-------------|-------------|


Suite (couplets) :
     Em                        C                         Am6
e ||-------------------0-----|-------------------------|-------2-----------------|
B ||-------0-----------0-----|-------1-----------3^1---|-------1-----------0-----|
G ||-----0-----------0-------|-----0-----------0-0-----|-----2-----------2-------|
D ||---2-------2---2-------0-|---2-------2---2-------0-|---2-------2---2-------0-|
A ||-------------------------|-3-----------3-----------|-0-----------0-----------|
E ||-0-----------0-----------|-------------------------|-------------------------|

e |-------0-----|-------0-----||
B |-----7-------|-----7-------||
G |---5-------5-|---5-------0-|| (x3)
D |-------------|-------------||
A |-0-----------|-0-----------||
E |-------------|-------------||

     Em                        C                         Am6
e ||-------------------0-----|-------------------------|-------2-----------------|
B ||-------0-----------0-----|-------1-----------3^1---|-------1-----------0-----|
G ||-----0-----------0-------|-----0-----------0-0-----|-----2-----------2-------|
D ||---2-------2---2-------0-|---2-------2---2-------0-|---2-------2---2-------0-|
A ||-------------------------|-3-----------3-----------|-0-----------0-----------|
E ||-0-----------0-----------|-------------------------|-------------------------|

e |-------------|-------------||
B |-------0-----|-------0-----||
G |-----4-------|-----0---0---|| (x1)
D |---2-------0-|---4-------0-||
A |-3-----------|-2-----------||
E |-------------|-------------||

Alterner ces deux parties 3x (jusqu'au refrain).


Refrain :
    G                         F#                        A   >
e |-------------------3-----|-------------------2-----|-5-5-5-5-------|
B |-------0-----------0-----|-------2-----------2-----|-5-5-5-5-------|
G |-----0-----------0-------|-----3-----------3---x---|-6-6-6-6-------|
D |---0-------0---0-------0-|---4-------4---4-------x-|-7-7-7-7-------|
A |-------------------------|-------------------------|-7-7-7-7-------|
E |-3-----------3-----------|-2-----------2-----------|-5-5-5-5-------|

e |-------------|-------------|
B |-------0-----|-------0-----|
G |-----4-------|-----4---0---|
D |---5-------5-|---5-------4-|
A |-3-----------|-2-----------|
E |-------------|-------------|


Dernier couplet et fin :
     Em                        C                         Bm
e ||-------------------0-----|-------------------------|-------2-----------------|
B ||-------0-----------0-----|-------1-----------3^1---|-------3-----------3-----|
G ||-----0-----------0-------|-----0-----------0-0-----|-----4-----------4-------|
D ||---2-------2---2-------0-|---2-------2---2-------0-|---4-------4---4-------4-|
A ||-------------------------|-3-----------3-----------|-2-----------2-----------|
E ||-0-----------0-----------|-------------------------|-------------------------|

e |-------------|-------------||
B |-------0-----|-------0-----||
G |-----4-------|-----4---0---|| (x2) avant - (x4) pendant le couplet
D |---5-------5-|---5-------4-||
A |-3-----------|-2-----------||
E |-------------|-------------||

e |-------------||
B |-------------||
G |-------------||
D |-------------||   Laisser sonner le Mi...
A |-------------||
E |-0-----------||

Paroles


J'vois pas le bon côté des choses j'vois que l'mauvais et j'm'explose à p'tite dose
J'm'expose à plus n'avoir rien que des regrets
Mais ça m'énerve ça m'gonfle ça m'prend au bide faut pas
Que j'm'dégonfle mais c'est speed
Faudrait qu'j'trouve un genre de plan pour faire qu'les choses aillent mieux et
Un moyen d'être heureux
J'perds pied j'm'enfonce y a plus rien qui me soutient
Même si j'cherche pas d'réponse quand j'me défonce au chagrin
Je sais plus faire la fête mais c'est con faudrait plutôt j'm'inquiète d'une raison pour
Faire qu'les choses aillent mieux et
Un moyen d'être heureux

Tu m'manques moi c'est bien moins bien que nous deux j't'aim'merde !
Encore un p'tit peu

Je joue avec le feu la tête en état d'âme
Et je fais de mon mieux pour me descendre en flamme
Je me suis comme mon ombre et c'est à perdre haleine
A chaqu'fois que j'compte le nombre de faux pas que j'me traine
Ce qui passe sur moi n'a pas un beau visage
Mais on dirai qu'j'ai plus qu'ça a offrir en partage
Ca doit être ma pénitence une sorte de punition
Un genre d'épreuve dans l'existence dont faudrait qu'j'fasse l'initiation
Je me tape des coups d'barre à me filer des crampes
Et je suis passé maitre dans l'art de me coller des trempes
Je m'excuse plus d'être amère par excès de politesse
Et quand je m'use de colère c'est pas exprès par faiblesse

Depuis le temps par habitude je respire pas j'me fume
Et c'est dev'nu une aptitude d'avoir le cœur en brume
Et même si je tourne pas rond je sais trop qu'à la fin
Avant qu'je touche le fond je n'irai pas bien loin
C'est au dessus de mes forces mais c'est sans importance
Au rythme ou ça se corse de tenir la distance
Je bluffe pas j'me couche c'est un jeu de malade
De prendre c'qu'il faut comme douche pour garder l'esprit crade
J'ignore si c'est un comble au point où ça me mine
De devoir mettre tout de fond en comble dans un champ de ruine
Je m'essouffle et j'étouffe il faut qu'je souffle un peu
Et qu'j'trouve vite un genre de plan pour faire qu'les choses aillent mieux

Tu m'manques moi c'est bien moins bien que nous deux j't'aim'merde !
Encore un p'tit peu

J'vois pas le bon côté des choses j'vois que l'mauvais et j'm'explose à p'tite dose
J'm'expose à plus n'avoir rien que des regrets
Mais ça m'énerve ça m'gonfle ça m'prend au bide faut pas
Que j'm'dégonfle mais c'est speed
Faudrait qu'j'trouve un genre de plan pour faire qu'les choses aillent mieux et
Un moyen d'être heureux
J'perds pied j'm'enfonce y a plus rien qui me soutient
Même si j'cherche pas d'réponse quand j'me défonce au chagrin
Je sais plus faire la fête mais c'est con faudrait plutôt j'm'inquiète d'une raison pour
Faire qu'les choses aillent mieux et
Un moyen d'être heureux