Tabsvolo.net - Tablature : Il paraît 


 Les tablatures : 68

Chanson française (2017)

Sans rire (2013)

C'est pas tout ça... (2010)

En attendant (2009)

Bref... Septembre 2008

  • Ma p'tite chanson
  • J'espère...
  • Bref

Jours heureux (2007)

Blancs Manteaux à Volo (2006)

Bien Zarbos (2004)

Tablature : Il paraît

17-02-2013

Partager cette tablature

Télécharger la version imprimable




Ecouter un extrait composé de différentes parties de la tablature :



Légende :
||------|| (xN) : Jouer N fois la partie entre les ||
                 = : Slide (glissé) vers le haut du manche
                =x : Slide gratté (glissé) vers le haut du manche en grattant les cordes autant de fois qu'il y a de "x"
                 x : Corde jouée étouffée


Intro album :

e ||----------|
B ||----------|
G ||----------|
D ||--------4-|
A ||--------4-|
E ||-12=xxx-4-|

Intro concert :

     D#m            Am                           F#m            
e ||-6------8-8---|-0------0-0-0-|---------x-x-|------------|-------2--x-x-|
B ||-7------7-7---|-0------0-0-0-|---------x-x-|------------|-------2--x-x-|
G ||-8------8-8---|-1------1-1-1-|---------x-x-|------------|-------3--x-x-|
D ||-8------8-8---|-2------2-2-2-|-x-------x-x-|-4--4--4--4-|-4--4--4--x-x-|
A ||-6------6-6---|-2------2-2-2-|-x-------x-x-|-4--4--4--4-|-4--4--4--x-x-|
E ||-6------6-6-0-|-0------0-0-0-|-9=------x-x-|-2--2--2--2-|-2--2--2--x-x-|

Premier couplet :

e ||---------------|------------------|---------------|------------------|
B ||---------------|------------------|---------------|------------------|
G ||---------------|------------------|---------------|------------------|
D ||-4---4-4-4-4-4-|-x-x--6^8-9-9-x-4-|-4---4-4-4-4-4-|-x-x--6^8-9-9-x-4-|
A ||-4^6-6-6-6-6-6-|-x-x--6---6-6-x-4-|-4^6-6-6-6-6-6-|-x-x--6---6-6-x-4-|
E ||-4---4-7-7-4-4-|-x-x--x-------x-4-|-4---4-7-7-4-4-|-x-x--x-------x-4-|

                                       F#m            Am              C#m
e |---------------|------------------|-2------2-2---|-0-------0-0-x-|-4-4-x-x-||
B |---------------|------------------|-2------2-2---|-0-------0-0-x-|-5-5-x-x-||
G |---------------|------------------|-3------3-3---|-1-------1-1-x-|-6-6-x-x-|| (x4)
D |-4---4-4-4-4-4-|-x-x--6^8-9-9-x-x-|-4------4-4---|-2-------2-2-x-|-6-6-x-x-||
A |-4^6-6-6-6-6-6-|-x-x--6---6-6-x-x-|-4------4-4-0-|-2-------2-2-x-|-4-4-x-x-||
E |-4---4-7-7-4-4-|-x-x--x-------x-x-|-2------2-2-0-|-0-------0-0-x-|-4-4-x-x-||

    D#m            Am                           F#m
e |-6------8-8---|-0------0-0-0-|---------x-x-|------------|-------2--x-x-|
B |-7------7-7---|-0------0-0-0-|---------x-x-|------------|-------2--x-x-|
G |-8------8-8---|-1------1-1-1-|---------x-x-|------------|-------3--x-x-|
D |-8------8-8---|-2------2-2-2-|-x-------x-x-|-4--4--4--4-|-4--4--4--x-x-|
A |-6------6-6---|-2------2-2-2-|-x-------x-x-|-4--4--4--4-|-4--4--4--x-x-|
E |-6------6-6-0-|-0------0-0-0-|-9=------x-x-|-2--2--2--2-|-2--2--2--x-x-|

Refrain :

     G#m                    D#m                 B                   D#m         F#m
e ||--------11-x-x-11-x-x-|-------6-x-x-6-x-x-|-------7-x-x-7-x-x-|-------6-x-x-2-x-x--||
B ||--------12-x-x-12-x-x-|-------7-x-x-7-x-x-|-------7-x-x-7-x-x-|-------7-x-x-2-x-x--||
G ||--------13-x-x-13-x-x-|-------8-x-x-8-x-x-|-------8-x-x-8-x-x-|-------8-x-x-3-x-x--|| (x3)
D ||--------13-x-x-13-x-x-|-------8-x-x-8-x-x-|-------9-x-x-9-x-x-|-------8-x-x-4-x-x--||
A ||-11-----11-x-x-11-x-6-|-6-----6-x-x-6-x-7-|-7-----9-x-x-9-x-6-|-6-----6-x-x-4-x-11-||
E ||-11-----11-x-x-11-x-6-|-6-----6-x-x-6-x-7-|-7-----7-x-x-7-x-6-|-6-----6-x-x-2-x-11-||

    G#m                    D#m                 B                   Am        F#m
e |--------11-x-x-11-x-x-|-------6-x-x-6-x-x-|-------7-x-x-7-x---|---------------------|
B |--------12-x-x-12-x-x-|-------7-x-x-7-x-x-|-------7-x-x-7-x---|---------------------|
G |--------13-x-x-13-x-x-|-------8-x-x-8-x-x-|-------8-x-x-8-x---|-1-----1-1-3-----3-3-|
D |--------13-x-x-13-x-x-|-------8-x-x-8-x-x-|-------9-x-x-9-x---|-2-----2-2-4-----4-4-|
A |-11-----11-x-x-11-x-6-|-6-----6-x-x-6-x-7-|-7-----9-x-x-9-x---|-2-----2-2-4-----4-4-|
E |-11-----11-x-x-11-x-6-|-6-----6-x-x-6-x-7-|-7-----7-x-x-7-x-0-|-0-----0-0-2-----2-2-|

Deuxième couplet :

e |---------------|--------|--------|--------|--------|--------|--------|--------|
B |---------------|--------|--------|--------|--------|--------|--------|--------|
G |---------------|--------|--------|--------|--------|--------|--------|--------|
D |---------------|--------|--------|--------|--------|--------|--------|--------|
A |-6-------------|--------|--------|--------|--------|--------|--------|--------|
E |-4-------------|--------|--------|--------|--------|--------|--------|--------|

e |---------------|------------------|---------------|------------------|
B |---------------|------------------|---------------|------------------|
G |---------------|------------------|---------------|------------------|
D |-4---4-4-4-4-4-|-x-x--6^8-9-9-x-4-|-4---4-4-4-4-4-|-x-x--6^8-9-9-x-4-|
A |-4^6-6-6-6-6-6-|-x-x--6---6-6-x-4-|-4^6-6-6-6-6-6-|-x-x--6---6-6-x-4-|
E |-4---4-7-7-4-4-|-x-x--x-------x-4-|-4---4-7-7-4-4-|-x-x--x-------x-4-|

                                       F#m
e |---------------|------------------|-2------|--------|--------|
B |---------------|------------------|-2------|--------|--------|
G |---------------|------------------|-3------|--------|--------|
D |-4---4-4-4-4-4-|-x-x--6^8-9-9-x-x-|-4------|--------|--------|
A |-4^6-6-6-6-6-6-|-x-x--6---6-6-x-x-|-4------|--------|--------|
E |-4---4-7-7-4-4-|-x-x--x-------x-x-|-2------|--------|--------|

e ||---------------|------------------|---------------|------------------|
B ||---------------|------------------|---------------|------------------|
G ||---------------|------------------|---------------|------------------|
D ||-4---4-4-4-4-4-|-x-x--6^8-9-9-x-4-|-4---4-4-4-4-4-|-x-x--6^8-9-9-x-4-|
A ||-4^6-6-6-6-6-6-|-x-x--6---6-6-x-4-|-4^6-6-6-6-6-6-|-x-x--6---6-6-x-4-|
E ||-4---4-7-7-4-4-|-x-x--x-------x-4-|-4---4-7-7-4-4-|-x-x--x-------x-4-|

                                       F#m            Am              C#m
e |---------------|------------------|-2------2-2---|-0-------0-0-x-|-4-4-x-x-||
B |---------------|------------------|-2------2-2---|-0-------0-0-x-|-5-5-x-x-||
G |---------------|------------------|-3------3-3---|-1-------1-1-x-|-6-6-x-x-|| (x2)
D |-4---4-4-4-4-4-|-x-x--6^8-9-9-x-x-|-4------4-4---|-2-------2-2-x-|-6-6-x-x-||
A |-4^6-6-6-6-6-6-|-x-x--6---6-6-x-x-|-4------4-4-0-|-2-------2-2-x-|-4-4-x-x-||
E |-4---4-7-7-4-4-|-x-x--x-------x-x-|-2------2-2-0-|-0-------0-0-x-|-4-4-x-x-||

    D#m            Am                           F#m
e |-6------8-8---|-0------0-0-0-|---------x-x-|------------|-------2--x-x-|
B |-7------7-7---|-0------0-0-0-|---------x-x-|------------|-------2--x-x-|
G |-8------8-8---|-1------1-1-1-|---------x-x-|------------|-------3--x-x-|
D |-8------8-8---|-2------2-2-2-|-x-------x-x-|-4--4--4--4-|-4--4--4--x-x-|
A |-6------6-6---|-2------2-2-2-|-x-------x-x-|-4--4--4--4-|-4--4--4--x-x-|
E |-6------6-6-0-|-0------0-0-0-|-9=------x-x-|-2--2--2--2-|-2--2--2--x-x-|

Refrain :

     G#m                    D#m                 B                   D#m         F#m
e ||--------11-x-x-11-x-x-|-------6-x-x-6-x-x-|-------7-x-x-7-x-x-|-------6-x-x-2-x-x--||
B ||--------12-x-x-12-x-x-|-------7-x-x-7-x-x-|-------7-x-x-7-x-x-|-------7-x-x-2-x-x--||
G ||--------13-x-x-13-x-x-|-------8-x-x-8-x-x-|-------8-x-x-8-x-x-|-------8-x-x-3-x-x--|| (x3)
D ||--------13-x-x-13-x-x-|-------8-x-x-8-x-x-|-------9-x-x-9-x-x-|-------8-x-x-4-x-x--||
A ||-11-----11-x-x-11-x-6-|-6-----6-x-x-6-x-7-|-7-----9-x-x-9-x-6-|-6-----6-x-x-4-x-11-||
E ||-11-----11-x-x-11-x-6-|-6-----6-x-x-6-x-7-|-7-----7-x-x-7-x-6-|-6-----6-x-x-2-x-11-||

    G#m                    D#m                 B                   Am        F#m
e |--------11-x-x-11-x-x-|-------6-x-x-6-x-x-|-------7-x-x-7-x---|---------------------|
B |--------12-x-x-12-x-x-|-------7-x-x-7-x-x-|-------7-x-x-7-x---|---------------------|
G |--------13-x-x-13-x-x-|-------8-x-x-8-x-x-|-------8-x-x-8-x---|-1-----1-1-3-----3-3-|
D |--------13-x-x-13-x-x-|-------8-x-x-8-x-x-|-------9-x-x-9-x---|-2-----2-2-4-----4-4-|
A |-11-----11-x-x-11-x-6-|-6-----6-x-x-6-x-7-|-7-----9-x-x-9-x---|-2-----2-2-4-----4-4-|
E |-11-----11-x-x-11-x-6-|-6-----6-x-x-6-x-7-|-7-----7-x-x-7-x-0-|-0-----0-0-2-----2-2-|



e |---------------|------------------|---------------|------------------|
B |---------------|------------------|---------------|------------------|
G |---------------|------------------|---------------|------------------|
D |-4---4-4-4-4-4-|-x-x--6^8-9-9-x-4-|-4---4-4-4-4-4-|-x-x--6^8-9-9-x-4-|
A |-4^6-6-6-6-6-6-|-x-x--6---6-6-x-4-|-4^6-6-6-6-6-6-|-x-x--6---6-6-x-4-|
E |-4---4-7-7-4-4-|-x-x--x-------x-4-|-4---4-7-7-4-4-|-x-x--x-------x-4-|

                                       F#m            Am              C#m
e |---------------|------------------|-2------2-2---|-0-------0-0-x-|-4-4-x-x-|
B |---------------|------------------|-2------2-2---|-0-------0-0-x-|-5-5-x-x-|
G |---------------|------------------|-3------3-3---|-1-------1-1-x-|-6-6-x-x-|
D |-4---4-4-4-4-4-|-x-x--6^8-9-9-x-x-|-4------4-4---|-2-------2-2-x-|-6-6-x-x-|
A |-4^6-6-6-6-6-6-|-x-x--6---6-6-x-x-|-4------4-4-0-|-2-------2-2-x-|-4-4-x-x-|
E |-4---4-7-7-4-4-|-x-x--x-------x-x-|-2------2-2-0-|-0-------0-0-x-|-4-4-x-x-|

Dernier couplet :

e |---------------|------------------|---------------|------------------|
B |---------------|------------------|---------------|------------------|
G |---------------|------------------|---------------|------------------|
D |-4---4-4-4-4-4-|-x-x--6^8-9-9-x-4-|-4---4-4-4-4-4-|-x-x--6^8-9-9-x-4-|
A |-4^6-6-6-6-6-6-|-x-x--6---6-6-x-4-|-4^6-6-6-6-6-6-|-x-x--6---6-6-x-4-|
E |-4---4-7-7-4-4-|-x-x--x-------x-4-|-4---4-7-7-4-4-|-x-x--x-------x-4-|

                                       F#m            Am              C#m
e |---------------|------------------|-2------2-2---|-0-------0-0-x-|-4-4-x-x-|
B |---------------|------------------|-2------2-2---|-0-------0-0-x-|-5-5-x-x-|
G |---------------|------------------|-3------3-3---|-1-------1-1-x-|-6-6-x-x-|
D |-4---4-4-4-4-4-|-x-x--6^8-9-9-x-x-|-4------4-4---|-2-------2-2-x-|-6-6-x-x-|
A |-4^6-6-6-6-6-6-|-x-x--6---6-6-x-x-|-4------4-4-0-|-2-------2-2-x-|-4-4-x-x-|
E |-4---4-7-7-4-4-|-x-x--x-------x-x-|-2------2-2-0-|-0-------0-0-x-|-4-4-x-x-|

e |---------------|------------------|---------------|------------------|
B |---------------|------------------|---------------|------------------|
G |---------------|------------------|---------------|------------------|
D |-4---4-4-4-4-4-|-x-x--6^8-9-9-x-4-|-4---4-4-4-4-4-|-x-x--6^8-9-9-x-4-|
A |-4^6-6-6-6-6-6-|-x-x--6---6-6-x-4-|-4^6-6-6-6-6-6-|-x-x--6---6-6-x-4-|
E |-4---4-7-7-4-4-|-x-x--x-------x-4-|-4---4-7-7-4-4-|-x-x--x-------x-4-|

                                       F#m
e |---------------|------------------|-2------|--------|--------|
B |---------------|------------------|-2------|--------|--------|
G |---------------|------------------|-3------|--------|--------|
D |-4---4-4-4-4-4-|-x-x--6^8-9-9-x-x-|-4------|--------|--------|
A |-4^6-6-6-6-6-6-|-x-x--6---6-6-x-x-|-4------|--------|--------|
E |-4---4-7-7-4-4-|-x-x--x-------x-x-|-2------|--------|--------|

e ||---------------|------------------|---------------|------------------|
B ||---------------|------------------|---------------|------------------|
G ||---------------|------------------|---------------|------------------|
D ||-4---4-4-4-4-4-|-x-x--6^8-9-9-x-4-|-4---4-4-4-4-4-|-x-x--6^8-9-9-x-4-|
A ||-4^6-6-6-6-6-6-|-x-x--6---6-6-x-4-|-4^6-6-6-6-6-6-|-x-x--6---6-6-x-4-|
E ||-4---4-7-7-4-4-|-x-x--x-------x-4-|-4---4-7-7-4-4-|-x-x--x-------x-4-|

                                       F#m            Am              C#m
e |---------------|------------------|-2------2-2---|-0-------0-0-x-|-4-4-x-x-||
B |---------------|------------------|-2------2-2---|-0-------0-0-x-|-5-5-x-x-||
G |---------------|------------------|-3------3-3---|-1-------1-1-x-|-6-6-x-x-|| (x2)
D |-4---4-4-4-4-4-|-x-x--6^8-9-9-x-x-|-4------4-4---|-2-------2-2-x-|-6-6-x-x-||
A |-4^6-6-6-6-6-6-|-x-x--6---6-6-x-x-|-4------4-4-0-|-2-------2-2-x-|-4-4-x-x-||
E |-4---4-7-7-4-4-|-x-x--x-------x-x-|-2------2-2-0-|-0-------0-0-x-|-4-4-x-x-||

Fin :

e |---------------|------------------|---------------|------------------|
B |---------------|------------------|---------------|------------------|
G |---------------|------------------|---------------|------------------|
D |-4---4-4-4-4-4-|-x-x--6^8-9-9-x-4-|-4---4-4-4-4-4-|-x-x--6^8-9-9-x-4-|
A |-4^6-6-6-6-6-6-|-x-x--6---6-6-x-4-|-4^6-6-6-6-6-6-|-x-x--6---6-6-x-4-|
E |-4---4-7-7-4-4-|-x-x--x-------x-4-|-4---4-7-7-4-4-|-x-x--x-------x-4-|

                                       F#m            Am              C#m
e |---------------|------------------|-2------2-2---|-0-------0-0-x-|-4-4-x-x-|
B |---------------|------------------|-2------2-2---|-0-------0-0-x-|-5-5-x-x-|
G |---------------|------------------|-3------3-3---|-1-------1-1-x-|-6-6-x-x-|
D |-4---4-4-4-4-4-|-x-x--6^8-9-9-x-x-|-4------4-4---|-2-------2-2-x-|-6-6-x-x-|
A |-4^6-6-6-6-6-6-|-x-x--6---6-6-x-x-|-4------4-4-0-|-2-------2-2-x-|-4-4-x-x-|
E |-4---4-7-7-4-4-|-x-x--x-------x-x-|-2------2-2-0-|-0-------0-0-x-|-4-4-x-x-|

e |---------------|------------------|---------------|------------------|
B |---------------|------------------|---------------|------------------|
G |---------------|------------------|---------------|------------------|
D |-4---4-4-4-4-4-|-x-x--6^8-9-9-x-4-|-4---4-4-4-4-4-|-x-x--6^8-9-9-x-4-|
A |-4^6-6-6-6-6-6-|-x-x--6---6-6-x-4-|-4^6-6-6-6-6-6-|-x-x--6---6-6-x-4-|
E |-4---4-7-7-4-4-|-x-x--x-------x-4-|-4---4-7-7-4-4-|-x-x--x-------x-4-|

                                       F#m            Am
e |---------------|------------------|-2------2-2---|-0-------|--------||
B |---------------|------------------|-2------2-2---|-0-------|--------||
G |---------------|------------------|-3------3-3---|-1-------|--------||
D |-4---4-4-4-4-4-|-x-x--6^8-9-9-x-x-|-4------4-4---|-2-------|--------||
A |-4^6-6-6-6-6-6-|-x-x--6---6-6-x-x-|-4------4-4-0-|-2-------|--------||
E |-4---4-7-7-4-4-|-x-x--x-------x-x-|-2------2-2-0-|-0-------|--------||




Paroles

Il paraît que mon pays construit des centres de rétention
Que l'administration obéit aux ordres du ministère
Il paraît que la police s'essuie des défenestrations
Que la justice ordonne des peines qui les renvois par charter
Il paraît qu'on piège en mairie, sur convocation, dénonciation
Que le fonctionnaire s'applique aussi en reconduite à la frontière
Il paraît que la police poursuit les enfants de l'immigration
Que mon pays investit dans des prisons pour familles entières
Il paraît que c'est vrai, mais...

Tout est beau dans le meilleur des mondes
L'animateur sourit à toute sa table ronde
Tout est promo et les blagues sont blondes
Le public applaudit, toutes les vingt secondes

Il paraît que leur pays est pourri et paradis de la corruption
Que leurs élites se partagent ce qui se donne aux entreprise étrangères
Il paraît que leur nombre grossit du manque de scolarisation
D'une jeunesse, qui rêve d'une vie plus belle de l'autre côté de la mer
Il paraît que si leur pouvoir est au prix du massacre des populations
Pour protéger ce qu'ils ont investi tout en puisse des affaires
Mafiocratie et monarchie sur les forces d'interpositions
Tout contrat se renégocie tout en présence militaire
Il paraît que c'est vrai, mais...

Tout est beau dans le meilleur des mondes
L'animateur sourit à toute sa table ronde
Tout est promo et les blagues sont blondes
Le public applaudit, toutes les vingt secondes

Il paraît que mon pays construit des centres de rétention
Pour empêcher, en théorie, la création d'un appel d'air
Il paraît que la démagogie peut faire gagner les élections
Que l'immigration se choisit comme on choisit un bouc émissaire
Il paraît que la démocratie s'est faite sur la reconstruction
D'un monde encore abasourdi, sorti tout droit de l'enfer
Il paraît qu'on s'est interdit depuis, les rafles et les persécutions
On fait du chiffre, c'est ce qu'on nous dit
Occupez-vous de vos affaires