Tabsvolo.net - Tablature : Y'a que dalle


 Les tablatures : 68

Chanson française (2017)

Sans rire (2013)

C'est pas tout ça... (2010)

En attendant (2009)

Bref... Septembre 2008

  • Ma p'tite chanson
  • J'espère...
  • Bref

Jours heureux (2007)

Blancs Manteaux à Volo (2006)

Bien Zarbos (2004)

Tablature : Y'a que dalle

04-12-2010

Partager cette tablature

Télécharger la version imprimable




Ecouter un extrait composé de différentes parties de la tablature :



Légende :
||----|| (x2)
: Rejouer la partie bornée par des doubles barres.


Intro :

     Em           Cadd9        Em           ?
e ||------------|------------|------------|------------|
B ||------------|------------|------------|----------0-|
G ||----------0-|----------0-|----------0-|-------0----|
D ||-------2----|-------0----|-------2----|----7-------|
A ||----2-------|----7-------|----2-------|-6----------|
E ||-0----------|-8----------|-0----------|------------|

    Em           Cadd9        Em           ?
e |------------|------------|------------|-------------||
B |------------|------------|------------|-----------0-||
G |----------0-|----------0-|----------0-|--------0----|| (x2)
D |-------2----|-------0----|-------0----|----10-------||
A |----2-------|----7-------|----2-------|-9-----------||
E |-0----------|-8----------|-3----------|-------------||

Couplet :

     Em           Cadd9        Em           ?
e ||------------|------------|------------|------------|
B ||------------|------------|------------|----------0-|
G ||----------0-|----------0-|----------0-|-------0----|
D ||-------2----|-------0----|-------2----|----7-------|
A ||----2-------|----7-------|----2-------|-6----------|
E ||-0----------|-8----------|-0----------|------------|

    Em           Cadd9        Em           ?
e |------------|------------|------------|-------------||
B |------------|------------|------------|-----------0-||
G |----------0-|----------0-|----------0-|--------0----|| (x2)
D |-------2----|-------0----|-------0----|----10-------||
A |----2-------|----7-------|----2-------|-9-----------||
E |-0----------|-8----------|-3----------|-------------||



    F6add9            Cadd9
e |-----------------|-----------------|
B |-----------------|-----------------|
G |----------0------|----------0------|
D |-------0---------|-------0---------|
A |----3----------0-|----7----------0-|
E |-1---------------|-8---------------|

    Gm                        ?                         ?
e |------------|------------|------------|------------|------------|------------||
B |------------|------------|------------|------------|------------|------------||
G |----------0-|----------0-|----------0-|----------0-|----------0-|----------0-||
D |-------0----|-------0----|-------0----|-------0----|-------0----|-------0----||
A |----5-------|----5-------|----4-------|----4-------|----3-------|----3-------||
E |-6----------|-6----------|-5----------|-5----------|-4----------|-4----------||

    G                         ?                         ?
e |------------|------------|------------|------------|------------|------------|
B |------------|------------|------------|------------|------------|------------|
G |----------0-|----------0-|----------0-|----------0-|----------0-|----------0-|
D |-------0----|-------0----|-------0----|-------0----|-------0----|-------0----|
A |----2-------|----2-------|----5-------|----5-------|----4-------|----4-------|
E |-3----------|-3----------|-6----------|-6----------|-5----------|-5----------|

    ?
e |------------|------------|------------|------------|
B |------------|------------|------------|------------|
G |----------0-|----------0-|----------0-|----------0-|
D |-------0----|-------0----|-------0----|-------0----|
A |----3-------|----3-------|----3-------|----3-------|
E |-4----------|-4----------|-4----------|-4----------|



    Em           Cadd9        Em           ?
e |------------|------------|------------|------------|
B |------------|------------|------------|----------0-|
G |----------0-|----------0-|----------0-|-------0----|
D |-------2----|-------0----|-------2----|----7-------|
A |----2-------|----7-------|----2-------|-6----------|
E |-0----------|-8----------|-0----------|------------|

    Em           Cadd9        Em           ?
e |------------|------------|------------|-------------|
B |------------|------------|------------|-----------0-|
G |----------0-|----------0-|----------0-|--------0----|
D |-------2----|-------0----|-------0----|----10-------|
A |----2-------|----7-------|----2-------|-9-----------|
E |-0----------|-8----------|-3----------|-------------|



     G                         ?
e ||------------|------------|-------------|-------------|
B ||------------|------------|-------------|-------------|
G ||----------0-|----------0-|-----------0-|-----------0-|
D ||-------0----|-------0----|--------0----|--------0----|
A ||----2-------|----2-------|-----9-------|-----9-------|
E ||-3----------|-3----------|-10----------|-10----------|

    ?
e |--------------|--------------|--------------|--------------|
B |--------------|--------------|--------------|--------------|
G |------------0-|------------0-|------------0-|------------0-|
D |---------0----|---------0----|---------0----|---------0----|
A |-----10-------|-----10-------|-----10-------|-----10-------|
E |-11-----------|-11-----------|-11-----------|-11-----------|

    G                         ?
e |------------|------------|------------|------------|
B |------------|------------|------------|------------|
G |----------0-|----------0-|----------0-|----------0-|
D |-------0----|-------0----|-------0----|-------0----|
A |----2-------|----2-------|----6-------|----6-------|
E |-3----------|-3----------|-7----------|-7----------|

    Cadd9
e |------------|------------|------------|------------||
B |------------|------------|------------|------------||
G |----------0-|----------0-|----------0-|----------0-|| (x2)
D |-------0----|-------0----|-------0----|-------0----||
A |----7-------|----7-------|----7-------|----7-------||
E |-8----------|-8----------|-8----------|-8----------||



     Em           Cadd9        Em           ?
e ||------------|------------|------------|------------|
B ||------------|------------|------------|----------0-|
G ||----------0-|----------0-|----------0-|-------0----|
D ||-------2----|-------0----|-------2----|----7-------|
A ||----2-------|----7-------|----2-------|-6----------|
E ||-0----------|-8----------|-0----------|------------|

    Em           Cadd9        Em           ?
e |------------|------------|------------|-------------||
B |------------|------------|------------|-----------0-||
G |----------0-|----------0-|----------0-|--------0----|| (x2)
D |-------2----|-------0----|-------0----|----10-------||
A |----2-------|----7-------|----2-------|-9-----------||
E |-0----------|-8----------|-3----------|-------------||


    Em           ?            Em           ?            Em           ?
e |------------|------------|------------|------------|------------|------------||
B |------------|----------0-|------------|----------0-|------------|----------0-||
G |----------0-|-------0----|----------0-|-------0----|----------0-|-------0----||
D |-------2----|----7-------|-------2----|----7-------|-------2----|----7-------||
A |----2-------|-6----------|----2-------|-6----------|----2-------|-6----------||
E |-0----------|------------|-0----------|------------|-0----------|------------||
                                                        Ralentir et decrescendo...


Paroles

Je vis dans une petite tour, dans une petite banlieue
D'une petite ville bourgeoise, dans un petit département
De ma fenêtre une petite cour, boules de pétanques et petits vieux
Qui vont qui viennent et s'entrecroisent, sous mon petit appartement

J'me fais iech oh oh oh, j'me fais iech
J'me fais iech oh oh oh, j'me fais iech
J'me fais iech oh oh oh, j'me fais iech
J'me fais iech, j'me fais iech, j'me fais iech

Y'a que dalle pour mon âge, ya que dalle pour mon p'tit frère
Y'a qu'des pov' gars au chômage, y'a des alloc' pour ma mère
Y'a que dalle pour ma soeur, y'a que dalle pour mes potes
Pour qui je vote ?

Y'a que dalle pour mon âge, ya que dalle pour mon p'tit frère
Y'a qu'des pov' gars au chômage, y'a des alloc' pour ma mère
Y'a que dalle pour ma soeur, y'a que dalle pour mes potes
Pourquoi je vote ?

Je vis dans une petite tour, dans une petite banlieue
D'une petite ville bourgeoise, dans un petit département