Tabsvolo.net - Tablature : Allô maman bobo


 Les tablatures : 68

Chanson française (2017)

Sans rire (2013)

C'est pas tout ça... (2010)

En attendant (2009)

Bref... Septembre 2008

  • Ma p'tite chanson
  • J'espère...
  • Bref

Jours heureux (2007)

Blancs Manteaux à Volo (2006)

Bien Zarbos (2004)

Tablature : Allô maman bobo

05-12-2010

Partager cette tablature

Télécharger la version imprimable




Ecouter un extrait composé de différentes parties de la tablature :



Légende :
||----|| (x2)
: Rejouer la partie bornée par des doubles barres.
t : taper sur les cordes avec la main droite


Intro :

     G            B            C            C            Am
e ||------------|------------|----3-----3-|----3-----3-|------------|
B ||----3-----3-|----7-----7-|----5-----5-|----5-----5-|----1-----1-|
G ||----4-----4-|----8-----8-|------------|-5----------|----2-----2-|
D ||------------|------------|-------5----|-------5----|-------2----|
A ||-------5----|-------9----|-3----------|------------|-0----------|
E ||-3----------|-7----------|------------|------------|------------|

    B            Em
e |------------|------------|--------7-7-|
B |----7-----7-|----t--8----|--------8-8-|
G |----8-----8-|----t--9----|--------9-9-|
D |------------|------------|--------9-9-|
A |-------9----|-7----------|--------7-7-|
E |-7----------|------------|--------7-7-|

Couplets 1,2 :

     G            B            C            C
e ||------------|------------|----3-----3-|----3-----3-||
B ||----3-----3-|----7-----7-|----5-----5-|----5-----5-||
G ||----4-----4-|----8-----8-|------------|-5----------|| (x2)
D ||------------|------------|-------5----|-------5----||
A ||-------5----|-------9----|-3----------|------------||
E ||-3----------|-7----------|------------|------------||

    Am           B            Em                  Em
e |------------|------------|------------|--------7-7-|
B |----1-----1-|----7-----7-|-------8----|--------8-8-|
G |----2-----2-|----8-----8-|-------9----|--------9-9-|
D |-------2----|------------|------------|--------9-9-|
A |-0----------|-------9----|-7----------|--------7-7-|
E |------------|-7----------|------------|--------7-7-|

Couplet 3 :

    G            B            C            C
e |------------|------------|----3-----3-|----3-----3-|
B |----3-----3-|----7-----7-|----5-----5-|----5-----5-|
G |----4-----4-|----8-----8-|------------|-5----------|
D |------------|------------|-------5----|-------5----|
A |-------5----|-------9----|-3----------|------------|
E |-3----------|-7----------|------------|------------|

    G            B            C            C
e |------------|------------|----3-----3-|----3-----3-|
B |----3-----3-|----7-----7-|----5-----5-|----5-----5-|
G |----4-----4-|----8-----8-|------------|------------|
D |------------|------------|-------5----|-------5----|
A |-------5----|-------9----|-3----------|-3----------|
E |-3----------|-7----------|------------|------------|

    Am           B            Em           Em
e |------------|------------|------------|------------|
B |----1-----1-|----7-----7-|----8-----8-|----8-----8-|
G |----2-----2-|----8-----8-|----9-----9-|----9-----9-|
D |-------2----|------------|------------|-9----------|
A |-0----------|-------9----|-------7----|-------7----|
E |------------|-7----------|-7----------|------------|

Couplets 4 :

     G            B            C            C
e ||------------|------------|----3-----3-|----3-----3-||
B ||----3-----3-|----7-----7-|----5-----5-|----5-----5-||
G ||----4-----4-|----8-----8-|------------|-5----------|| (x2)
D ||------------|------------|-------5----|-------5----||
A ||-------5----|-------9----|-3----------|------------||
E ||-3----------|-7----------|------------|------------||

    Am           B            Em
e |------------|------------|------------|------------|
B |----1-----1-|----7-----7-|-------8----|------------|
G |----2-----2-|----8-----8-|-------9----|------------|
D |-------2----|------------|------------|------------|
A |-0----------|-------9----|-7----------|------------|
E |------------|-7----------|------------|------------|

Refrains 1,2,3 :

     Am           B            Em           Em
e ||------------|------------|------------|------------||
B ||----1-----1-|----4-----4-|----0-----0-|----0-----0-||
G ||----2-----2-|----4-----4-|----0-----0-|----0-----0-|| (x2)
D ||-------2----|------------|------------|-2----------||
A ||-0----------|-------2----|-------2----|-------2----||
E ||------------|-2----------|-0----------|------------||

Début du refrain 4 avec la guitare n°2 uniquement, puis, reprendre sur la fin, et continuer :

   (Am)         (B)           Em           Em
e |------------|------------|------------|------------|
B |------------|------------|----0-----0-|----0-----0-|
G |------------|------------|----0-----0-|----0-----0-|
D |------------|------------|------------|-2----------|
A |------------|------------|-------2----|-------2----|
E |------------|------------|-0----------|------------|

     Am           B            Em           Em
e ||------------|------------|------------|------------||
B ||----1-----1-|----4-----4-|----0-----0-|----0-----0-||
G ||----2-----2-|----4-----4-|----0-----0-|----0-----0-|| (x5)
D ||-------2----|------------|------------|-2----------||
A ||-0----------|-------2----|-------2----|-------2----||
E ||------------|-2----------|-0----------|------------||

    Am           B            Em
e |------------|------------|-------0-----------------||
B |----1-----1-|----4-----4-|------0------------------||
G |----2-----2-|----4-----4-|-----0-------------------||
D |-------2----|------------|----2--------------------||
A |-0----------|-------2----|---2---------------------||
E |------------|-2----------|-0-----------------------||




Paroles

J'marche tout seul le long d'la ligne de ch'min d'fer
Dans ma tête y'a pas d'affaire
J'donne des coups d'pied dans une p'tite boite en fer
Dans ma tête y'a rien à faire
J'suis mal en campagne et mal en ville
Peut-être un p'tit peu trop fragile

Refrain
Allô Maman bobo
Maman comment tu m'as fait je suis pas beau
Allô Maman bobo
Allô Maman bobo

Traine fumée, j'me r'trouve avec mal au coeur
J'ai vomi tout mon quatre heure
Fêtes, nuits folles, avec les gens qu'ont du bol
Maint'nant qu'j'fais du music hall
J'suis mal à la scène et mal en ville
Peut-être un p'tit peu trop fragile

{ Refrain }

Moi j'voulais les sorties d'port à la voile
La nuit barrer les étoiles
Moi les ch'vaux, l'révolver et le chapeau d'clown
La belle Peggy du saloon
J'suis mal en homm' dur
Et mal en p'tit coeur
Peut-être un p'tit peu trop rêveur

{ Refrain }

J'marche tout seul le long d'la ligne de ch'min d'fer
Dans ma tête y'a pas d'affaire
J'donne des coups d'pied dans une p'tite boite en fer
Dans ma tête y'a rien à faire
J'suis mal en campagne j'suis mal en ville
Peut-être un p'tit peu trop fragile

{ Refrain } x3