Tabsvolo.net - Tablature : J'ai rien branlé


 Les tablatures : 68

Chanson française (2017)

Sans rire (2013)

C'est pas tout ça... (2010)

En attendant (2009)

Bref... Septembre 2008

  • Ma p'tite chanson
  • J'espère...
  • Bref

Jours heureux (2007)

Blancs Manteaux à Volo (2006)

Bien Zarbos (2004)

Tablature : J'ai rien branlé

13-03-2016

Partager cette tablature

Télécharger la version imprimable 


Ecouter un extrait composé de différentes parties de la tablature :



Légende :
||------|| (xN) : Jouer N fois la partie entre les ||
                 x : Corde jouée étouffée
                 ^ : Pull-on
                 = : Slide vers le haut du manche

Intro :

     E                                                 A
e ||------------------------|------------------------|------------------------|------------------------|
B ||----------0-------------|----------0-------------|----------3^-2----------|----------2-------------|
G ||-------1-----1--------1-|-------1-----1--------0-|-------2-----2--------2-|-------2-----2--------0-|
D ||----2-----------2-------|----2-----------2-------|----2-----------2-------|----2-----------2-------|
A ||------------------------|------------------------|-0-----------------0----|-0-----------------0----|
E ||-0-----------------0----|-0-----------------0----|------------------------|------------------------|

    E                                                 A
e |------------------------|------------------------|------------------------|------------------------|
B |----------0-------------|----------0-------------|----------2-------------|----------2-------------|
G |-------1-----1--------1-|-------1-----1--------0-|-------2-----2--------2-|----------2-------------|
D |----2-----------2-------|----2-----------2-------|----2-----------2-------|------------------------|
A |------------------------|------------------------|-0-----------------0----|-0----------------------|
E |-0-----------------0----|-0-----------------0----|------------------------|------------------------|

Couplet :

    E                                                 A
e |------------------------|------------------------|------------------------|------------------------|
B |----------0-------------|----------0-------------|----------2-------------|----------2-------------|
G |-------1-----1--------1-|-------1-----1--------0-|-------2-----2--------2-|-------2-----2--------0-|
D |----2-----------2-------|----2-----------2-------|----2-----------2-------|----2-----------2-------|
A |------------------------|------------------------|-0-----------------0----|-0-----------------0----|
E |-0-----------------0----|-0-----------------0----|------------------------|------------------------|

    E                                                 A
e |----------0-------------|------------------------|------------------------|------------------------|
B |----------0-------------|----------0-------------|----------2-------------|------------------------|
G |-------1-----1--------1-|-------1-----1--------0-|-------2-----2--------2-|------------------------|
D |----2-----------2-------|----2-----------2-------|----2-----------2-------|------------------------|
A |------------------------|------------------------|-0-----------------0----|-0----------------------|
E |-0-----------------0----|-0-----------------0----|------------------------|------------------------|

    E                                                 A
e |------------------------|------------------------|------------------------|------------------------|
B |----------0-------------|----------0-------------|----------2-------------|----------2-------------|
G |-------1-----1--------1-|-------1-----1--------0-|-------2-----2--------2-|-------2-----2--------0-|
D |----2-----------2-------|----2-----------2-------|----2-----------2-------|----2-----------2-------|
A |------------------------|------------------------|-0-----------------0----|-0-----------------0----|
E |-0-----------------0----|-0-----------------0----|------------------------|------------------------|

Refrain :

    D                                                 F
e |------------------------|------------------------|------------------------|------------------------|
B |----------3-------------|----------3-------------|----------1-------------|------------------------|
G |-------2-----2--------2-|-------2-----2--------0-|-------2-----2--------2-|------------------------|
D |----0-----------0-------|----0-----------0-------|----3-----------3-------|------------------------|
A |------------------------|------------------------|------------------------|------------------------|
E |-2-----------------2----|-2-----------------2----|-1-----------------1----|-1----------12=---------|

    E                                                 A
e |----------0-------------|------------------------|------------------------|------------------------|
B |----------0-------------|----------0-------------|----------2-------------|----------2-------------|
G |-------1-----1--------1-|-------1-----1--------0-|-------2-----2--------2-|-------2-----2--------0-|
D |----2-----------2-------|----2-----------2-------|----2-----------2-------|----2-----------2-------|
A |------------------------|------------------------|-0-----------------0----|-0-----------------0----|
E |-0-----------------0----|-0-----------------0----|------------------------|------------------------|

    E                                                 A
e |------------------------|------------------------|------------------------|------------0------0----|
B |----------0-------------|----------0-------------|----------2-------------|------------2------0----|
G |-------1-----1--------1-|-------1-----1--------0-|-------2-----2--------2-|------------2------0----|
D |----2-----------2-------|----2-----------2-------|----2-----------2-------|------------2------0----|
A |------------------------|------------------------|-0-----------------0----|-0----------0------0----|
E |-0-----------------0----|-0-----------------0----|------------------------|------------------------|

Couplet

    E                                 A
e |-0-0-0----0-0-0-0-0-0-0----0-0-0-|-0-0-0-0----0-0-0-0-0-0-0----0-0-0-|
B |-0-0-0----0-0-0-0-0-0-0----0-0-0-|-2-x-2-2----2-x-x-2-x-2-2----2-x-x-|
G |-1-1-1----1-x-x-1-x-1-1----1-x-x-|-2-x-2-2----2-x-x-2-x-2-2----2-x-x-|
D |-2-2-2----2-x-x-2-x-2-2----2-x-x-|-2-x-2-2----2-x-x-2-x-2-2----2-x-x-|
A |-2-2-2----2-x-x-2-x-2-2----2-x-x-|-0-0-0-0----0-0-0-0-0-0-0----0-0-0-|
E |-0-0-0----0-0-0-0-0-0-0----0-0-0-|-0-0-0-0----0-0-0-0-0-0-0----0-0-0-|

     E                                   A
e ||-0-0-0-0----0-0-0-0-0-0-0----0-0-0-|-0-0-0-0----0-0-0-0-0-0-0----0-0-0-||
B ||-0-0-0-0----0-0-0-0-0-0-0----0-0-0-|-2-x-2-2----2-x-x-2-x-2-2----2-x-x-||
G ||-1-x-1-1----1-x-x-1-x-1-1----1-x-x-|-2-x-2-2----2-x-x-2-x-2-2----2-x-x-|| (x2)
D ||-2-x-2-2----2-x-x-2-x-2-2----2-x-x-|-2-x-2-2----2-x-x-2-x-2-2----2-x-x-||
A ||-2-x-2-2----2-x-x-2-x-2-2----2-x-x-|-0-0-0-0----0-0-0-0-0-0-0----0-0-0-||
E ||-0-0-0-0----0-0-0-0-0-0-0----0-0-0-|-0-0-0-0----0-0-0-0-0-0-0----0-0-0-||

    E                                   A
e |-0-0-0-0----0-0-0-0-0-0-0----0-0-0-|-0-0-0-0----0-0-0-0----------------|
B |-0-0-0-0----0-0-0-0-0-0-0----0-0-0-|-2-x-2-2----2-x-x-2----------------|
G |-1-x-1-1----1-x-x-1-x-1-1----1-x-x-|-2-x-2-2----2-x-x-2----------------|
D |-2-x-2-2----2-x-x-2-x-2-2----2-x-x-|-2-x-2-2----2-x-x-2----------------|
A |-2-x-2-2----2-x-x-2-x-2-2----2-x-x-|-0-0-0-0----0-0-0-0----------------|
E |-0-0-0-0----0-0-0-0-0-0-0----0-0-0-|-0-0-0-0----0-0-0-0--------12=-----|

Refrain, fin :

    D                                                 F
e |------------------------|------------------------|------------------------|-----------------------|
B |----------3-------------|----------3-------------|----------1-------------|-----------------0-0-0-|
G |-------2-----2--------2-|-------2-----2--------0-|-------2-----2--------2-|-----------------0-0-0-|
D |----0-----------0-------|----0-----------0-------|----3-----------3-------|-----------------0-0-0-|
A |------------------------|------------------------|------------------------|-----------------0-0-0-|
E |-2-----------------2----|-2-----------------2----|-1-----------------1----|-1----------12=--x-x-0-|

     E                                   A
e ||-0-0-0-0----0-0-0-0-0-0-0----0-0-0-|-0-0-0-0----0-0-0-0-0-0-0----0-0-0-||
B ||-0-0-0-0----0-0-0-0-0-0-0----0-0-0-|-2-x-2-2----2-x-x-2-x-2-2----2-x-x-||
G ||-1-x-1-1----1-x-x-1-x-1-1----1-x-x-|-2-x-2-2----2-x-x-2-x-2-2----2-x-x-|| (x3)
D ||-2-x-2-2----2-x-x-2-x-2-2----2-x-x-|-2-x-2-2----2-x-x-2-x-2-2----2-x-x-||
A ||-2-x-2-2----2-x-x-2-x-2-2----2-x-x-|-0-0-0-0----0-0-0-0-0-0-0----0-0-0-||
E ||-0-0-0-0----0-0-0-0-0-0-0----0-0-0-|-0-0-0-0----0-0-0-0-0-0-0----0-0-0-||

    E                                   A
e |-0-0-0-0----0-0-0-0-0-0-0----0-0-0-|-0-0-0-0----0-0-0-0-0-0-0----0-----|
B |-0-0-0-0----0-0-0-0-0-0-0----0-0-0-|-2-x-2-2----2-x-x-2-x-2-2----2-----|
G |-1-x-1-1----1-x-x-1-x-1-1----1-x-x-|-2-x-2-2----2-x-x-2-x-2-2----2-----|
D |-2-x-2-2----2-x-x-2-x-2-2----2-x-x-|-2-x-2-2----2-x-x-2-x-2-2----2-----|
A |-2-x-2-2----2-x-x-2-x-2-2----2-x-x-|-0-0-0-0----0-0-0-0-0-0-0----0-----|
E |-0-0-0-0----0-0-0-0-0-0-0----0-0-0-|-0-0-0-0----0-0-0-0-0-0-0----0-----|

    E                                                 A
e |------------------------|------------------------|------------------------|------------------------|
B |----------0-------------|----------0-------------|----------2-------------|----------2-------------|
G |-------1-----1--------1-|-------1-----1--------0-|-------2-----2--------2-|-------2-----2--------0-|
D |----2-----------2-------|----2-----------2-------|----2-----------2-------|----2-----------2-------|
A |------------------------|------------------------|-0-----------------0----|-0-----------------0----|
E |-0-----------------0----|-0-----------------0----|------------------------|------------------------|

    E                                                 A
e |------------------------|------------------------|------------------------|------------------------|
B |----------0-------------|----------0-------------|----------2-------------|----------2-------------|
G |-------1-----1--------1-|-------1-----1--------0-|-------2-----2--------2-|----------2-------------|
D |----2-----------2-------|----2-----------2-------|----2-----------2-------|------------------------|
A |------------------------|------------------------|-0-----------------0----|-0----------------------|
E |-0-----------------0----|-0-----------------0----|------------------------|------------------------|

    E
e |------------------------|------------------------||
B |------------------------|------------------------||
G |------------------------|------------------------||
D |------------------------|-2----------------------||
A |-------------2----------|------------------------||
E |-0----------------------|------------------------||


Paroles

J'ai foutu quoi aujourd'hui ?
Réveillé tard, beaucoup dormi
Le café n'a failli pas suffire
Et plusieurs fois j'ai manqué de me rendormir

C'a été long aujourd'hui
Il a fait beau, il a fait moche
J'suis même pas sorti
J'avais d'la bière dans l'frigo
Il m'en restait d'hier avec quelques mégots

J'ai rien branlé d'ma journée
Ou plutôt, j'ai fait que ça
J'ai fait que ça haha hmhm haha
Haha ha ha ha

J'ai pensé à quoi aujourd'hui ?
J'ai pensé à quoi aujourd'hui ?
La mort, la vie, la vie, la mort
La mort la vie et puis et puis et puis
A la voisine du d'ssus

J'ai failli mourir d'ennui
J'ai failli mourir d'ennui
J'ai zappé la télé, picolé, zappé la télé, picolé
Et puis et puis j'ai joui
Sur les filles d'Alerte à Malibu

J'ai rien branlé d'ma journée
Ou plutôt, j'ai fait que ça
J'ai fait que ça
J'ai fait que ça
J'ai fait que ça
J'ai fait que ça
Caaaaa

Ca va pas, ça va pas, ça va pas, ça va pas
Ca va pas pas pas
Ca va pas pas pas
Ca va pas, ça va pas, ça va pas, ça va pas
Ca va pas pas pas
Ca va pas pas pas
Ca va pas, ca va pas, ca va pas
Ca va pas...
Du tout