Tabsvolo.net - Tablature : Comme si


 Les tablatures : 68

Chanson française (2017)

Sans rire (2013)

C'est pas tout ça... (2010)

En attendant (2009)

Bref... Septembre 2008

  • Ma p'tite chanson
  • J'espère...
  • Bref

Jours heureux (2007)

Blancs Manteaux à Volo (2006)

Bien Zarbos (2004)

Tablature : Comme si

30-01-2013

Partager cette tablature

Télécharger la version imprimable




Ecouter un extrait composé de différentes parties de la tablature :



Légende :
||------|| (xN) : Jouer N fois la partie entre les ||


Intro :

     Bm           D6           Bm6
e ||------------|------------|------------|------------|
B ||----3-----3-|----3-----3-|----3-----3-|------------|
G ||----4-----4-|----4-----4-|----4-----4-|------------|
D ||-------4----|-------4----|-------4----|------------|
A ||-2----------|-0----------|------------|------------|
E ||------------|------------|-4----------|-4----------|

Couplets 1 et 2 : (enchainés)

    Bm           D6           Em           G
e |------------|------------|------------|------------|
B |----3-----3-|----3-----3-|----8-----8-|----3-----3-|
G |----4-----4-|----4-----4-|----9-----9-|----4-----4-|
D |-------4----|-------4----|-------9----|------------|
A |-2----------|-0----------|-7----------|-------5----|
E |------------|------------|------------|-3----------|

    Bm           D6           Em           A
e |------------|------------|------------|------------|
B |----3-----3-|----3-----3-|----8-----8-|----5-----5-|
G |----4-----4-|----4-----4-|----9-----9-|----6-----6-|
D |-------4----|-------4----|-------9----|------------|
A |-2----------|-0----------|-7----------|-------7----|
E |------------|------------|------------|-5----------|

    Bm           D6           Em           G
e |------------|------------|------------|------------|
B |----3-----3-|----3-----3-|----8-----8-|----3-----3-|
G |----4-----4-|----4-----4-|----9-----9-|----4-----4-|
D |-------4----|-------4----|-------9----|------------|
A |-2----------|-0----------|-7----------|-------5----|
E |------------|------------|------------|-3----------|

    Bm           D6           G
e |------------|------------|------------|------------|
B |----3-----3-|----3-----3-|----3-----3-|----3-----3-|
G |----4-----4-|----4-----4-|----4-----4-|----4-----4-|
D |-------4----|-------4----|------------|-5----------|
A |-2----------|-0----------|-------5----|-------5----|
E |------------|------------|-3----------|------------|

    A
e |------------|------------|------------|------------|
B |----5-----5-|----5-----5-|----5-----5-|----5-----5-|
G |----6-----6-|----6-----6-|----6-----6-|----6-----6-|
D |------------|-7----------|------------|-7----------|
A |-------7----|-------7----|-------7----|-------7----|
E |-5----------|------------|-5----------|------------|

    Bm           D6           Em           G
e |------------|------------|------------|------------|
B |----3-----3-|----3-----3-|----8-----8-|----3-----3-|
G |----4-----4-|----4-----4-|----9-----9-|----4-----4-|
D |-------4----|-------4----|-------9----|------------|
A |-2----------|-0----------|-7----------|-------5----|
E |------------|------------|------------|-3----------|

    Bm           D6           Em           A
e |------------|------------|------------|------------|
B |----3-----3-|----3-----3-|----8-----8-|----5-----5-|
G |----4-----4-|----4-----4-|----9-----9-|----6-----6-|
D |-------4----|-------4----|-------9----|------------|
A |-2----------|-0----------|-7----------|-------7----|
E |------------|------------|------------|-5----------|

    Bm           D6           Em           G
e |------------|------------|------------|------------|
B |----3-----3-|----3-----3-|----8-----8-|----3-----3-|
G |----4-----4-|----4-----4-|----9-----9-|----4-----4-|
D |-------4----|-------4----|-------9----|------------|
A |-2----------|-0----------|-7----------|-------5----|
E |------------|------------|------------|-3----------|

    Bm           D6           G
e |------------|------------|------------|------------|
B |----3-----3-|----3-----3-|----3-----3-|----3-----3-|
G |----4-----4-|----4-----4-|----4-----4-|----4-----4-|
D |-------4----|-------4----|------------|-5----------|
A |-2----------|-0----------|-------5----|-------5----|
E |------------|------------|-3----------|------------|

    A
e |------------|------------|
B |----5-----5-|----5-----5-|
G |----6-----6-|----6-----6-|
D |------------|-7----------|
A |-------7----|-------7----|
E |-5----------|------------|

Refrain :

     D                                 Em
e ||----------------|----------------|------------|------------|
B ||-----10------10-|-----10------10-|----8-----8-|----8-----8-|
G ||-----11------11-|-----11------11-|----9-----9-|----9-----9-|
D ||----------------|-12-------------|-------9----|-------9----|
A ||---------12-----|---------12-----|-7----------|-7----------|
E ||-10-------------|----------------|------------|------------|

    G                         A
e |------------|------------|------------|------------||
B |----3-----3-|----3-----3-|----5-----5-|----5-----5-||
G |----4-----4-|----4-----4-|----6-----6-|----6-----6-|| (x2)
D |------------|-5----------|------------|-7----------||
A |-------5----|-------5----|-------7----|-------7----||
E |-3----------|------------|-5----------|------------||

    Bm           D6           Bm6
e |------------|------------|------------|------------|
B |----3-----3-|----3-----3-|----3-----3-|------------|
G |----4-----4-|----4-----4-|----4-----4-|------------|
D |-------4----|-------4----|-------4----|------------|
A |-2----------|-0----------|------------|------------|
E |------------|------------|-4----------|-4----------|

Couplet 3 :

    G                         A
e |------------|------------|------------|------------|
B |----3-----3-|----3-----3-|----5-----5-|----5-----5-|
G |----4-----4-|----4-----4-|----6-----6-|----6-----6-|
D |------------|-5----------|------------|-7----------|
A |-------5----|-------5----|-------7----|-------7----|
E |-3----------|------------|-5----------|------------|

    Bm                        A
e |------------|------------|------------|------------|
B |----3-----3-|----3-----3-|----5-----5-|----5-----5-|
G |----4-----4-|----4-----4-|----6-----6-|----6-----6-|
D |-------4----|-------4----|------------|-7----------|
A |-2----------|-2----------|-------7----|-------7----|
E |------------|------------|-5----------|------------|

    Em                        A
e |------------|------------|------------|------------|
B |----0-----0-|----0-----0-|----5-----5-|----5-----5-|
G |----0-----0-|----0-----0-|----6-----6-|----6-----6-|
D |------------|-2----------|------------|-7----------|
A |-------2----|-------2----|-------7----|-------7----|
E |-0----------|------------|-5----------|------------|

    Bm           D6           Bm6          G
e |------------|------------|------------|------------|
B |----3-----3-|----3-----3-|----3-----3-|----3-----3-|
G |----4-----4-|----4-----4-|----4-----4-|----4-----4-|
D |-------4----|-------4----|-------4----|------------|
A |-2----------|-0----------|------------|-------5----|
E |------------|------------|-4----------|-3----------|

    A                         A
e |------------|------------|------------|------------|
B |----5-----5-|----5-----5-|----5-----5-|----5-----5-|
G |----6-----6-|----6-----6-|----6-----6-|----6-----6-|
D |------------|-7----------|------------|-7----------|
A |-------7----|-------7----|-------7----|-------7----|
E |-5----------|------------|-5----------|------------|



    D                                 Em
e |----------------|----------------|------------|------------|
B |-----10------10-|-----10------10-|----8-----8-|----8-----8-|
G |-----11------11-|-----11------11-|----9-----9-|----9-----9-|
D |----------------|-12-------------|-------9----|-------9----|
A |---------12-----|---------12-----|-7----------|-7----------|
E |-10-------------|----------------|------------|------------|

    G                         A
e |------------|------------|------------|------------|
B |----3-----3-|----3-----3-|----5-----5-|----5-----5-|
G |----4-----4-|----4-----4-|----6-----6-|----6-----6-|
D |------------|-5----------|------------|-7----------|
A |-------5----|-------5----|-------7----|-------7----|
E |-3----------|------------|-5----------|------------|

Derniers refrains et fin :

     D                                 Em
e ||----------------|----------------|------------|------------|
B ||-----10------10-|-----10------10-|----8-----8-|----8-----8-|
G ||-----11------11-|-----11------11-|----9-----9-|----9-----9-|
D ||----------------|-12-------------|-------9----|-------9----|
A ||---------12-----|---------12-----|-7----------|-7----------|
E ||-10-------------|----------------|------------|------------|

    G                         A
e |------------|------------|------------|------------||
B |----3-----3-|----3-----3-|----5-----5-|----5-----5-||
G |----4-----4-|----4-----4-|----6-----6-|----6-----6-|| (x4)
D |------------|-5----------|------------|-7----------||
A |-------5----|-------5----|-------7----|-------7----||
E |-3----------|------------|-5----------|------------||

    Bm           D6           Bm6          GM7             Bm
e |------------|------------|------------|------------|----------3----||
B |----3-----3-|----3-----3-|----3-----3-|----3-----3-|---------3-----||
G |----4-----4-|----4-----4-|----4-----4-|----4-----4-|--------4------||
D |-------4----|-------4----|-------4----|-------4----|-------5-------||
A |-2----------|-0----------|------------|------------|------5--------||
E |------------|------------|-4----------|-3----------|-----3---------||



Paroles

Ta mère et moi on se sépare
Même si c'est vrai que c'est moi qui part
Les grands des fois c'est plus d'accords
C'est d'la faute à personne a tort
Ta mère et moi on se comprend
Et comme à ton âge c'est pas grand
On va s'organiser au moins
Pour que j'puisse habiter pas loin

Ton père et moi on se connait peu
On s'est parlé une fois ou deux
Il sait le temps qu'on passe ensemble
Et je crois qu'il voit bien que tu me ressembles
Ton père et moi on n'en sait rien
Et si un jour on s'entend bien
Peut être qu'on aura su s'y faire
Chacun dans son rôle de père

Mais tous les deux c'est pour la vie
A se revoir c'est pas fini
J'vais pas changer si je m'en vais
Et tout ce qui est fait est fait
On change rien on continu
C'est d'notre histoire que le début
J'vais continuer je te promets
A t'aimer comme si je t'avais fait

De toi à moi plus de 5 ans
Ma première fois ta première dent
J'ai pas eu peur je suis rev'nu
Et tranquillement on s'est r'connu
On s'habitus vite aux sourires
Et comme le temps c'est des souv'nirs
De jolies photos de famille
D'un homme heureux, d'une petite fille

Mais tous les deux c'est pour la vie
A se revoir c'est pas fini
J'vais pas changer si je m'en vais
Et tout ce qui est fait est fait
On change rien on continu
C'est d'notre histoire que le début
J'vais continuer je te promets
A t'aimer comme si je t'avais fait

Mais tous les deux c'est pour la vie
A se revoir c'est pas fini
J'vais pas changer si je m'en vais
Et tout ce qui est fait est fait
On change rien on continu
C'est d'notre histoire que le début
J'vais continuer je te promets
A t'aimer comme si je t'avais fait