Tabsvolo.net - Tablature : À mon cou


 Les tablatures : 68

Chanson française (2017)

Sans rire (2013)

C'est pas tout ça... (2010)

En attendant (2009)

Bref... Septembre 2008

  • Ma p'tite chanson
  • J'espère...
  • Bref

Jours heureux (2007)

Blancs Manteaux à Volo (2006)

Bien Zarbos (2004)

Tablature : À mon cou

24-01-2017

Partager cette tablature

Télécharger la version imprimable 


Ecouter un extrait composé de différentes parties de la tablature :



Légende :
||------|| (xN) : Jouer N fois la partie entre les ||

Aide et conseils :
Arpèges et accords classique "à la Olivier" :) Pouce, index, majeur. La basse en avant.

Les barrés ne sont pas "plaqués". Le Bm en barré 2, mais sans le barré, juste avec les 4 doigts sur 4 cordes : A, D, G et B, devient donc le Bm sus4 ;)
- Bm sus4   = Bm
- B11           = A
- F#11         = F#


Intro :

     Bm sus4            A9                 Em                 Em9
e ||----------------0-|----------------0-|----------------0-|----------------0-||
B ||-------3-----3----|-------0-----0----|-------0-----0----|-------0-----0----||
G ||----4-------------|----0-------------|----0-------------|----0-------------|| (x2)
D ||----------4-------|----------7-------|----------5-------|----------4-------||
A ||-2----------------|-4----------------|-7----------------|-5----------------||
E ||------------------|------------------|------------------|------------------||


Couplets :

     Bm sus4            A9                 Em                 Em9
e ||----------------0-|----------------0-|----------------0-|----------------0-||
B ||-------3-----3----|-------0-----0----|-------0-----0----|-------0-----0----||
G ||----4-------------|----0-------------|----0-------------|----0-------------|| (x4)
D ||----------4-------|----------7-------|----------5-------|----------4-------||
A ||-2----------------|-4----------------|-7----------------|-5----------------||
E ||------------------|------------------|------------------|------------------||

    G                                     B11
e |----------------3-|-------3----------|----------------0-|-------0----------|
B |-------0-----0----|----0-----------0-|-------0-----0----|----0-----------0-|
G |----0-------------|-0-----------0----|----6-------------|-6-----------6----|
D |----------0-------|----------0-------|----------7-------|----------7-------|
A |------------------|------------------|------------------|------------------|
E |-3----------------|------------------|-5----------------|------------------|
    F#11                                  F#11
e |----------------0-|-------0----------|----------------0-|-------0----------|
B |-------0-----0----|----0-----------0-|-------0-----0----|----0-----------0-|
G |----3-------------|-3-----------3----|----3-------------|-3-----------3----|
D |----------4-------|----------4-------|----------4-------|----------4-------|
A |------------------|------------------|------------------|------------------|
E |-2----------------|------------------|-2----------------|------------------|


Refrains :

     A                                     Bm sus4
e ||----------------0-|-------0----------|----------------0-|-------0----------||
B ||-------2-----2----|----2-----------2-|-------3-----3----|----3-----------3-||
G ||----2-------------|-2-----------2----|----4-------------|-4-----------4----|| (x4)
D ||----------2-------|----------2-------|----------4-------|----------4-------||
A ||-0----------------|------------------|-2----------------|------------------||
E ||------------------|------------------|------------------|------------------||
    G                                     F#11
e |----------------3-|-------3----------|----------------0-|-------0----------|
B |-------0-----0----|----0-----------0-|-------0-----0----|----0-----------0-|
G |----0-------------|-0-----------0----|----3-------------|-3-----------3----|
D |----------0-------|----------0-------|----------4-------|----------4-------|
A |------------------|------------------|------------------|------------------|
E |-3----------------|------------------|-2----------------|------------------|
     Bm sus4            A9                 Em                 Em9
e ||----------------0-|----------------0-|----------------0-|----------------0-||
B ||-------3-----3----|-------0-----0----|-------0-----0----|-------0-----0----||
G ||----4-------------|----0-------------|----0-------------|----0-------------|| (x2)
D ||----------4-------|----------7-------|----------5-------|----------4-------||
A ||-2----------------|-4----------------|-7----------------|-5----------------||
E ||------------------|------------------|------------------|------------------||

{ Couplet }


{ Refrain }


{ Couplet }


{ Refrain }


Fin :

    C#7                Bm sus4
e |----------------0-|---------0--------||
B |-------0-----0----|-------3----------||
G |----0-------------|-----4------------||
D |----------3-------|---4--------------||
A |-4----------------|-2----------------||
E |------------------|------------------||


Paroles

Dans mon souv'nir t'étais dans une robe d'été
Qui se donnait exprès, l'air de te déshabiller
Dans mon souvenir je pensais que jusqu'à preuve du contraire
Il vaut mieux ne pas le faire exprès que de faire exprès de n'pas l'faire
Et j'me rappelle, j'avoue, que ça troublait la vue
Et tes jambes à mon cou ne me l'ont jamais rendu

Je t'aimerais encore, si ça n'tenait qu'à moi
Si tu m'aimais encore, je n'aimerais que toi
Je t'aimerais encore, si ça n'tenait qu'à moi
Si tu m'aimais encore, je n'aimerais que toi

Dans mon souvenir t'étais dans une robe d'été
Qui se donnait exprès, l'air de te déshabiller
Dans mon souvenir c'était kitch et sur le mur des toilettes
Y'avais « Son of a bitch » écrit par un analphabète
Et j'me rappelle, j'avoue, comme c'était délicieux
Tes jambes à mon cou et tes doigts dans mes cheveux

Je t'aimerais encore, si ça n'tenait qu'à moi
Si tu m'aimais encore, je n'aimerais que toi
Je t'aimerais encore, si ça n'tenait qu'à moi
Si tu m'aimais encore, je n'aimerais que toi

Dans mon souvenir t'étais dans une robe d'été
Qui se donnait exprès, l'air de te déshabiller
Dans mon souvenir j'ignorais que jusqu'à preuve du contraire
Il vaut toujours mieux le faire exprès que faire exprès de n'pas l'faire
Mais aujourd'hui, j'avoue, que j'aurais du peut-être
Prendre mes jambes à mon cou avant de te connaître

Je t'aimerais encore, si ça n'tenait qu'à moi
Si tu m'aimais encore, je n'aimerais que toi
Je t'aimerais encore, si ça n'tenait qu'à moi
Si tu m'aimais encore, je n'aimerais que toi