Tabsvolo.net - Tablature : Se redire


 Les tablatures : 68

Chanson française (2017)

Sans rire (2013)

C'est pas tout ça... (2010)

En attendant (2009)

Bref... Septembre 2008

  • Ma p'tite chanson
  • J'espère...
  • Bref

Jours heureux (2007)

Blancs Manteaux à Volo (2006)

Bien Zarbos (2004)

Tablature : Se redire

27-02-2016

Partager cette tablature

Télécharger la version imprimable 


Ecouter un extrait composé de différentes parties de la tablature :



Légende :
||------|| (xN) : Jouer N fois la partie entre les ||
                 t :  taper sur les cordes avec la main droite (les ongles)

Intro :

     Cm              Cm6             Fm                 A#
e ||---------------|---------------|------------------|---------------|
B ||-----4-t-t---4-|-----4-t-t---4-|-----9--t-t----9--|-----6-t-t---6-|
G ||-----5-t-t---5-|-----5-t-t---5-|-----10-t-t----10-|-----7-t-t---7-|
D ||-----------5---|-----------5---|------------10=---|---------------|
A ||-3-------------|-0-------------|-8----------------|-----------8---|
E ||---------------|---------------|------------------|-6-------------|

    Cm              Cm6             Fm                 A#
e |---------------|---------------|------------------|---------------|
B |-----4-t-t---4-|-----4-t-t---4-|-----9--t-t----9--|-----6-t-t---6-|
G |-----5-t-t---5-|-----5-t-t---5-|-----10-t-t----10-|-----7-t-t---7-|
D |---5-------5---|-----------5---|------------10=---|---------------|
A |-3-------------|-0-------------|-8----------------|-----------8---|
E |---------------|---------------|------------------|-6-------------|

Couplets :

     Cm              Cm6             Fm                 A#
e ||---------------|---------------|------------------|---------------||
B ||-----4-t-t---4-|-----4-t-t---4-|-----9--t-t----9--|-----6-t-t---6-||
G ||-----5-t-t---5-|-----5-t-t---5-|-----10-t-t----10-|-----7-t-t---7-|| (x3)
D ||---5-------5---|-----------5---|------------10=---|---------------||
A ||-3-------------|-0-------------|-8----------------|-----------8---||
E ||---------------|---------------|------------------|-6-------------||

    G#              Fm                 A#
e |---------------|------------------|---------------|---------------|
B |-----4-t-t---4-|-----9--t-t----9--|-----6-t-t---6-|-----6-t-t---6-|
G |-----5-t-t---5-|-----10-t-t----10-|-----7-t-t---7-|-----7-t-t---7-|
D |---------------|------------10=---|---------------|-8-------------|
A |-----------6---|-8----------------|-----------8---|-----------8---|
E |-4-------------|------------------|-6-------------|---------------|

Refrains :

     G#              A#              Cm              Gm
e ||---------------|---------------|---------------|-------------------||
B ||-----4-t-t---4-|-----6-t-t---6-|-----4-t-t---4-|------11-t-t----11-||
G ||-----5-t-t---5-|-----7-t-t---7-|-----5-t-t---5-|------12-t-t----12-|| (x3)
D ||---------------|---------------|-----------5---|-------------12=---||
A ||-----------6---|-----------8---|-3-------------|-10----------------||
E ||-4-------------|-6-------------|---------------|-------------------||

    Fm                                  A#
e |-----------------|-----------------|---------------|---------------|
B |----9--t-t----9--|----9--t-t----9--|-----6-t-t---6-|-----6-t-t---6-|
G |----10-t-t----10-|----10-t-t----10-|-----7-t-t---7-|-----7-t-t---7-|
D |-----------10----|-----------10=---|---------------|-8-------------|
A |-8---------------|-8---------------|-----------8---|-----------8---|
E |-----------------|-----------------|-6-------------|---------------|

Couplet

Refrain

Pré 3ème couplet : (Libre...)

     Cm              Cm              Fm                  A#
e ||---------------|---------------|-------------------|---------------||
B ||-----4---4-----|-----4---4-----|------9----9-------|-----6---6-----||
G ||-----5---5-----|-----5---5-----|------10---10------|-----7---7-----|| (x2)
D ||---5-----------|---5-----------|---10--------------|---------------||
A ||-3-------------|-3-------------|-8-----------------|---8-----------||
E ||---------------|---------------|-------------------|-6-------------||

Couplet

Refrain (x2)

Fin :

     G#              A#              Cm              Gm
e ||---------------|---------------|---------------|-------------------||
B ||-----4-t-t---4-|-----6-t-t---6-|-----4-t-t---4-|------11-t-t----11-||
G ||-----5-t-t---5-|-----7-t-t---7-|-----5-t-t---5-|------12-t-t----12-|| (x3)
D ||---------------|---------------|-----------5---|-------------12=---||
A ||-----------6---|-----------8---|-3-------------|-10----------------||
E ||-4-------------|-6-------------|---------------|-------------------||

    Fm                                  A#
e |-----------------|-----------------|---------------|---------------||
B |----9--t-t----9--|----9--t-t----9--|---------------|---------------||
G |----10-t-t----10-|----10-t-t----10-|---------------|---------------||
D |-----------10----|-----------10=---|---------------|---------------||
A |-8---------------|-8---------------|---------------|---------------||
E |-----------------|-----------------|-6-------------|---------------||



Paroles

Si je laisse tomber
Tout c'que j'entends aux infos
Si je mets de côté
Ce que je lis dans les journaux
Si j'oublie ce que je sais
Ce que je suis
Avant ce que je serai
Et puis

Lever les yeux vers le ciel
Comme une piqûre de rappel
Coûte que coûte et sans rancune
Se redire que la vie belle
Se souvenir qu'on en a qu'une

Si c'est grâce au hasard
Aux amis aux parents
En enfance quelque part
Depuis pas si longtemps
Et quand ça nous réveille
Ou par un jour de pluie
Comme c'est pour tout l'monde pareil
Et puis

Lever les yeux vers le ciel
Comme une piqûre de rappel
Coûte que coûte et sans rancune
Se redire que la vie belle
Se souvenir qu'on en a qu'une

Si c'est pour plus jamais
Comme il faut disparaître
Entre ce qu'on aimait
Le temps de se connaitre
Si c'est jour après jour
Faudrait pas qu'on s'ennuie
Comme c'est chacun son tour
Et puis

Lever les yeux vers le ciel
Comme une piqûre de rappel
Coûte que coûte et sans rancune
Se redire que la vie belle
Se souvenir qu'on en a qu'une