Tabsvolo.net - Tablature : Jeune et beau


 Les tablatures : 76

17 ans (En acoustique) (2022)

Avec son frère (2020)

Chanson française (2017)

Sans rire (2013)

C'est pas tout ça... (2010)

En attendant (2009)

Bref... Septembre 2008

  • Ma p'tite chanson
  • J'espère...
  • Bref

Jours heureux (2007)

Blancs Manteaux à Volo (2006)

Bien Zarbos (2004)

Tablature : Jeune et beau

09-04-2020

Partager cette tablature

Télécharger la version imprimable 


Ecouter un extrait composé de différentes parties de la tablature :



Légende :
||------|| (xN) : Jouer N fois la partie entre les ||

Intro :

     Em                                    C                  Bm
e ||------------------|------------------|------------------|------------------||
B ||----0--0-----0--0-|----0--0-----0----|----1--1-----1--1-|----3--3-----3--3-||
G ||----0--0-----0--0-|----0--0-----0----|----0--0-----0--0-|----4--4-----4--4-|| (x2)
D ||------------------|-2--------4-----2-|----------2-------|----------4-------||
A ||----------2-------|------------------|-3----------------|-2----------------||
E ||-0----------------|------------------|------------------|------------------||

Couplets 1,2 :

     Em                                    C                  Bm
e ||------------------|------------------|------------------|------------------||
B ||----0--0-----0--0-|----0--0-----0--0-|----1--1-----1--1-|----3--3-----3--3-||
G ||----0--0-----0--0-|----0--0-----0--0-|----0--0-----0--0-|----4--4-----4--4-|| (x3)
D ||------------------|-2----------------|----------2-------|----------4-------||
A ||----------2-------|----------2-------|-3----------------|-2----------------||
E ||-0----------------|------------------|------------------|------------------||

    Am                                    C                 
e |------------------|------------------|-------------------|-------------------|
B |----1--1-----1--1-|----1--1-----1--1-|----8--8------8--8-|-------------------|
G |----2--2-----2--2-|----2--2-----2--2-|----9--9------9--9-|-------------------|
D |----------2-------|----------2-------|-------------------|-10----------------|
A |-0----------------|-0----------------|----------10-------|-------------------|
E |------------------|------------------|-8-----------------|-------------------|

Refrain :

     G                                     D
e ||------------------|------------------|------------------------|------------------------|
B ||----3--3-----3--3-|----3--3-----3--3-|-----10--10------10--10-|-----10--10------10--10-|
G ||----4--4-----4--4-|----4--4-----4--4-|-----11--11------11--11-|-----11--11------11--11-|
D ||------------------|-5----------------|------------------------|-12---------------------|
A ||----------5-------|----------5-------|-------------12---------|-------------12---------|
E ||-3----------------|------------------|-10---------------------|------------------------|

    Am                                    C                 
e |------------------|------------------|-------------------|--------------------||
B |----1--1-----1--1-|----1--1-----1--1-|----8--8------8--8-|-----8--8------8--8-||
G |----2--2-----2--2-|----2--2-----2--2-|----9--9------9--9-|-----9--9------9--9-|| (x2)
D |----------2-------|----------2-------|-------------------|-10-----------------||
A |-0----------------|-0----------------|----------10-------|-----------10-------||
E |------------------|------------------|-8-----------------|--------------------||

{ 2ème couplet }

2ème Refrain :

    G                                     D
e |------------------|------------------|------------------------|------------------------|
B |----3--3-----3--3-|----3--3-----3--3-|-----10--10------10--10-|-----10--10------10--10-|
G |----4--4-----4--4-|----4--4-----4--4-|-----11--11------11--11-|-----11--11------11--11-|
D |------------------|-5----------------|------------------------|-12---------------------|
A |----------5-------|----------5-------|-------------12---------|-------------12---------|
E |-3----------------|------------------|-10---------------------|------------------------|

    Am                                    C                 
e |------------------|------------------|-------------------|--------------------|
B |----1--1-----1--1-|----1--1-----1--1-|----8--8------8--8-|-----8--8------8--8-|
G |----2--2-----2--2-|----2--2-----2--2-|----9--9------9--9-|-----9--9------9--9-|
D |----------2-------|----------2-------|-------------------|-10-----------------|
A |-0----------------|-0----------------|----------10-------|-----------10-------|
E |------------------|------------------|-8-----------------|--------------------|

    G                                     D
e |------------------|------------------|------------------------|------------------------|
B |----3--3-----3--3-|----3--3-----3--3-|-----10--10------10--10-|-----10--10------10--10-|
G |----4--4-----4--4-|----4--4-----4--4-|-----11--11------11--11-|-----11--11------11--11-|
D |------------------|-5----------------|------------------------|-12---------------------|
A |----------5-------|----------5-------|-------------12---------|-------------12---------|
E |-3----------------|------------------|-10---------------------|------------------------|

    Am                                    Bm                 
e |------------------|------------------|------------------|------------------|
B |----1--1-----1--1-|----1--1-----1--1-|----3--3-----3--3-|----3--3-----3--3-|
G |----2--2-----2--2-|----2--2-----2--2-|----4--4-----4--4-|----4--4-----4--4-|
D |----------2-------|----------2-------|----------4-------|----------4-------|
A |-0----------------|-0----------------|-2----------------|-2----------------|
E |------------------|------------------|------------------|------------------|

3ème couplet :

    C                                        Am              D
e |-------------------|--------------------|---------------|------------------------|
B |----8--8------8--8-|-----8--8------8--8-|----1--1-----1-|-----10--10------10--10-|
G |----9--9------9--9-|-----9--9------9--9-|----2--2-----2-|-----11--11------11--11-|
D |-------------------|-10-----------------|----------2----|------------------------|
A |----------10-------|-----------10-------|-0-------------|-------------12---------|
E |-8-----------------|--------------------|---------------|-10---------------------|

    C                                        Am              Bm
e |-------------------|--------------------|---------------|------------------|
B |----8--8------8--8-|-----8--8------8--8-|----1--1-----1-|----3--3-----3--3-|
G |----9--9------9--9-|-----9--9------9--9-|----2--2-----2-|----4--4-----4--4-|
D |-------------------|-10-----------------|----------2----|----------4-------|
A |----------10-------|-----------10-------|-0-------------|-2----------------|
E |-8-----------------|--------------------|---------------|------------------|

    Em                                    C                  Bm
e |------------------|------------------|------------------|------------------|
B |----0--0-----0--0-|----0--0-----0--0-|----1--1-----1--1-|----3--3-----3--3-|
G |----0--0-----0--0-|----0--0-----0--0-|----0--0-----0--0-|----4--4-----4--4-|
D |------------------|-2----------------|----------2-------|----------3-------|
A |----------2-------|----------2-------|-3----------------|-2----------------|
E |-0----------------|------------------|------------------|------------------|

    Am                                    C                 
e |------------------|------------------|-------------------|-------------------|
B |----1--1-----1--1-|----1--1-----1--1-|----8--8------8--8-|-----8--8--8--8--8-|
G |----2--2-----2--2-|----2--2-----2--2-|----9--9------9--9-|-----9--9--9--9--9-|
D |----------2-------|----------2-------|-------------------|-10----------------|
A |-0----------------|-0----------------|----------10-------|------------------ |
E |------------------|------------------|-8-----------------|-------------------|

    C
e |------------------|------------------|
B |-8--8--8--8--8--8-|-8--8--8--8--8--8-|
G |-9--9--9--9--9--9-|-9--9--9--9--9--9-|
D |------------------|------------------|
A |------------------|------------------|
E |------------------|------------------|

Refrain et fin :

    G                                     D
e |------------------|------------------|------------------------|------------------------|
B |------------------|------------------|------------------------|------------------------|
G |------------------|------------------|------------------------|------------------------|
D |------------------|------------------|------------------------|------------------------|
A |------------------|------------------|------------------------|------------------------|
E |-3----------------|------------------|-10---------------------|------------------------|

    Am                                    C                 
e |------------------|------------------|-------------------|--------------------|
B |------------------|------------------|----8--8------8--8-|-----8--8------8--8-|
G |------------------|------------------|----9--9------9--9-|-----9--9------9--9-|
D |------------------|------------------|-------------------|-10-----------------|
A |-0----------------|------------------|----------10-------|-----------10-------|
E |------------------|------------------|-8-----------------|--------------------|

    G                                     D
e |------------------|------------------|------------------------|------------------------|
B |----3--3-----3--3-|----3--3-----3--3-|-----10--10------10--10-|-----10--10------10--10-|
G |----4--4-----4--4-|----4--4-----4--4-|-----11--11------11--11-|-----11--11------11--11-|
D |------------------|-5----------------|------------------------|-12---------------------|
A |----------5-------|----------5-------|-------------12---------|-------------12---------|
E |-3----------------|------------------|-10---------------------|------------------------|

    Am                                    C                 
e |------------------|------------------|-------------------|--------------------|
B |----1--1-----1--1-|----1--1-----1--1-|----8--8------8--8-|-----8--8------8--8-|
G |----2--2-----2--2-|----2--2-----2--2-|----9--9------9--9-|-----9--9------9--9-|
D |----------2-------|----------2-------|-------------------|-10-----------------|
A |-0----------------|-0----------------|----------10-------|-----------10-------|
E |------------------|------------------|-8-----------------|--------------------|

    G                                     D
e |------------------|------------------|------------------------|------------------------|
B |----3--3-----3--3-|----3--3-----3--3-|-----10--10------10--10-|-----10--10------10--10-|
G |----4--4-----4--4-|----4--4-----4--4-|-----11--11------11--11-|-----11--11------11--11-|
D |------------------|-5----------------|------------------------|-12---------------------|
A |----------5-------|----------5-------|-------------12---------|-------------12---------|
E |-3----------------|------------------|-10---------------------|------------------------|

    Am                                    C                 
e |------------------|------------------|-------------------|--------------------||
B |----1--1-----1--1-|----1--1-----1--1-|----8--8------8--8-|-----8--8------8--8-||
G |----2--2-----2--2-|----2--2-----2--2-|----9--9------9--9-|-----9--9------9--9-||
D |----------2-------|----------2-------|-------------------|-10-----------------||
A |-0----------------|-0----------------|----------10-------|-----------10-------||
E |------------------|------------------|-8-----------------|--------------------||

    G
e |------------------|------------------|------------------||
B |----3--3-----3--3-|------------------|------------------||
G |----4--4-----4--4-|------------------|------------------||
D |------------------|-5----------------|------------------||
A |----------5-------|------------------|------------------||
E |-3----------------|------------------|------------------||


Paroles

C’est sûr que c’est bizarre
Bizarre de se revoir sur cette vidéo
Et c’est pas par hasard
Puisque j’voulais ce soir, retrouver des photos

C’est sûr que c’est marrant
Que les enfants se moquent de la tête qu’on avait
Comme on avait 20 ans,
Des coiffures de l’époque, et comme on d’habillait

    Quand on était jeune et beau
    Se connaissant à peine
    Loin de se dire je t’aime
    Comme on était jeune et chaud
    Jusqu’à en perdre haleine
    Loin de se dire je t’aime
    Quand on était jeune et beau
    Se connaissant à peine

C’est sûr que c’est l’été
Dans la grande maison, des copains qu’on avait
Des visages oubliés
Retrouver le prénom, de celui qui filmait

C’est sûr que c’est lointain
Et comme ça fait plaisir de voir comme on marchait
En se tenant la main
De nous entendre rire, et comme on s’en foutait

    { Refrain }

C’est sûr que c’est plus ça
Même si c’est différent, comme c’est toujours nous deux
De toute façon ça va
D’être ensemble parents, et de les rendre heureux

    { Refrains }