Tabsvolo.net - Tablature : Joséphine


 Les tablatures : 72

Avec son frère (2020)

Chanson française (2017)

Sans rire (2013)

C'est pas tout ça... (2010)

En attendant (2009)

Bref... Septembre 2008

  • Ma p'tite chanson
  • J'espère...
  • Bref

Jours heureux (2007)

Blancs Manteaux à Volo (2006)

Bien Zarbos (2004)

Tablature : Joséphine

19-04-2020

Partager cette tablature

Télécharger la version imprimable 


Ecouter un extrait composé de différentes parties de la tablature :



Légende :
||------|| (xN) : Jouer N fois la partie entre les ||
                  ^ : Pull on
                  > : Accent


Capo 5


Intro :

     Am (Dm)
                >            >            >            >
e ||--------------|------------|------------|------------|
B ||----1-------1-|----1-----1-|----1-----1-|----1-----1-|
G ||----2-------2-|----2-----2-|----2-----2-|----2-----0-|
D ||-------0^2----|-------2----|-------2----|-------2----|
A ||-0------------|-0----------|-0----------|-0----------|
E ||--------------|------------|------------|------------|

    C (F)
               >            >            >            Simile...
e |--------------|------------|------------|------------|
B |----1-------1-|----1-----1-|----1-----1-|----1-----1-|
G |----0-------0-|----0-----0-|----0-----0-|----0-----0-|
D |-------0^2----|-------2----|-------2----|-------2----|
A |-3------------|-3----------|-3----------|-3----------|
E |--------------|------------|------------|------------|

    Em (Am)
e |--------------|------------|------------|------------|
B |----0-------0-|----0-----0-|----0-----0-|----0-----0-|
G |----0-------0-|----0-----0-|----0-----0-|----0-----0-|
D |-------0^2----|-------2----|-------2----|-------2----|
A |--------------|-2----------|-2----------|-2----------|
E |-0------------|------------|------------|------------|

    Am (Dm)
e |--------------|------------|------------|------------|
B |----1-------1-|----1-----1-|----1-----1-|----1-----1-|
G |----2-------2-|----2-----2-|----2-----2-|----2-----2-|
D |-------0^2----|-------2----|-------2----|-------0----|
A |-0------------|-0----------|-0----------|-0----------|
E |--------------|------------|------------|------------|

Couplets :

     Am (Dm)
e ||------------|------------|------------|------------|
B ||----1-----1-|----1-----1-|----1-----1-|----1-----1-|
G ||----2-----2-|----2-----2-|----2-----2-|----2-----0-|
D ||-------2----|-------2----|-------2----|-------2----|
A ||-0----------|-0----------|-0----------|-0----------|
E ||------------|------------|------------|------------|

    C (F)
e |--------------|------------|------------|------------|
B |----1-------1-|----1-----1-|----1-----1-|----1-----1-|
G |----0-------0-|----0-----0-|----0-----0-|----0-----0-|
D |-------0^2----|-------2----|-------2----|-------2----|
A |-3------------|-3----------|-3----------|-3----------|
E |--------------|------------|------------|------------|

    Em (Am)
e |--------------|------------|------------|------------|
B |----0-------0-|----0-----0-|----0-----0-|----0-----0-|
G |----0-------0-|----0-----0-|----0-----0-|----0-----0-|
D |-------0^2----|-------2----|-------2----|-------2----|
A |--------------|-2----------|-2----------|-2----------|
E |-0------------|------------|------------|------------|

    Am (Dm)
e |--------------|------------|------------|------------||
B |----1-------1-|----1-----1-|----1-----1-|----1-----1-||
G |----2-------2-|----2-----2-|----2-----2-|----2-----2-|| (x2)
D |-------0^2----|-------2----|-------2----|-------0----||
A |-0------------|-0----------|-0----------|-0----------||
E |--------------|------------|------------|------------||

Refrain :

    Em (Am)
e |------------|------------|------------|------------|
B |----8-----8-|----8-----8-|----8-----8-|----8-----8-|
G |----9-----9-|----9-----9-|----9-----9-|----9-----9-|
D |-------9----|-------9----|-------9----|-------9----|
A |-7----------|-7----------|-7----------|-7----------|
E |------------|------------|------------|------------|

    Dm (Gm)
e |------------|------------|------------|------------|
B |----6-----6-|----6-----6-|----6-----6-|----6-----0-|
G |----7-----7-|----7-----7-|----7-----7-|----7-----0-|
D |-------7----|-------7----|-------7----|-------7----|
A |-5----------|-5----------|-5----------|-5----------|
E |------------|------------|------------|------------|

    C (F)
e |--------------|------------|------------|------------|
B |----1-------1-|----1-----1-|----1-----1-|----1-----1-|
G |----0-------0-|----0-----0-|----0-----0-|----0-----0-|
D |-------0^2----|-------2----|-------2----|-------2----|
A |-3------------|-3----------|-3----------|-3----------|
E |--------------|------------|------------|------------|

    Em (Am)
e |--------------|------------|------------|------------|
B |----0-------0-|----0-----0-|----0-----0-|----0-----0-|
G |----0-------0-|----0-----0-|----0-----0-|----0-----0-|
D |-------0^2----|-------2----|-------2----|-------2----|
A |--------------|-2----------|-2----------|-2----------|
E |-0------------|------------|------------|------------|

    Am (Dm)
e |--------------|------------|------------|------------|
B |----1-------1-|----1-----1-|----1-----1-|----1-----1-|
G |----2-------2-|----2-----2-|----2-----2-|----2-----2-|
D |-------0^2----|-------2----|-------2----|-------0----|
A |-0------------|-0----------|-0----------|-0----------|
E |--------------|------------|------------|------------|

{ 2ème couplet }

2ème refrain :

    Em (Am)
e |------------|------------|------------|------------|
B |----8-----8-|----8-----8-|----8-----8-|----8-----8-|
G |----9-----9-|----9-----9-|----9-----9-|----9-----9-|
D |-------9----|-------9----|-------9----|-------9----|
A |-7----------|-7----------|-7----------|-7----------|
E |------------|------------|------------|------------|

    Dm (Gm)
e |------------|------------|------------|------------|
B |----6-----6-|----6-----6-|----6-----6-|----6-----0-|
G |----7-----7-|----7-----7-|----7-----7-|----7-----0-|
D |-------7----|-------7----|-------7----|-------7----|
A |-5----------|-5----------|-5----------|-5----------|
E |------------|------------|------------|------------|

    C (F)
e |--------------|------------|------------|------------|
B |----1-------1-|----1-----1-|----1-----1-|----1-----1-|
G |----0-------0-|----0-----0-|----0-----0-|----0-----0-|
D |-------0^2----|-------2----|-------2----|-------2----|
A |-3------------|-3----------|-3----------|-3----------|
E |--------------|------------|------------|------------|

    Em (Am)
e |--------------|------------|------------|------------|
B |----0-------0-|----0-----0-|----0-----0-|----0-----0-|
G |----0-------0-|----0-----0-|----0-----0-|----0-----0-|
D |-------0^2----|-------2----|-------2----|-------2----|
A |--------------|-2----------|-2----------|-2----------|
E |-0------------|------------|------------|------------|

    Am (Dm)
e |--------------|------------|------------|------------|
B |----1-------1-|----1-----1-|----1-----1-|----1-----1-|
G |----2-------2-|----2-----2-|----2-----2-|----2-----0-|
D |-------0^2----|-------2----|-------2----|-------0----|
A |-0------------|-0----------|-0----------|-0----------|
E |--------------|------------|------------|------------|

    C (F)
e |--------------|------------|------------|------------|
B |----1-------1-|----1-----1-|----1-----1-|----1-----1-|
G |----0-------0-|----0-----0-|----0-----0-|----0-----0-|
D |-------0^2----|-------2----|-------2----|-------2----|
A |-3------------|-3----------|-3----------|-3----------|
E |--------------|------------|------------|------------|

    Em (Am)
e |--------------|------------|------------|------------|
B |----0-------0-|----0-----0-|----0-----0-|----0-----0-|
G |----0-------0-|----0-----0-|----0-----0-|----0-----0-|
D |-------0^2----|-------2----|-------2----|-------2----|
A |--------------|-2----------|-2----------|-2----------|
E |-0------------|------------|------------|------------|

    Am (Dm)
e |--------------|------------|------------|------------|
B |----1-------1-|----1-----1-|----1-----1-|----1-----0-|
G |----2-------2-|----2-----2-|----2-----2-|----2-----0-|
D |-------0^2----|-------2----|-------2----|-------0----|
A |-0------------|-0----------|-0----------|-0----------|
E |--------------|------------|------------|------------|


Pont :

    Dm (Gm)
e |------------|------------|------------|------------|
B |----6-----6-|----6-----6-|----6-----6-|----6-----0-|
G |----7-----7-|----7-----7-|----7-----7-|----7-----0-|
D |-------7----|-------7----|-------7----|-------7----|
A |-5----------|-5----------|-5----------|-5----------|
E |------------|------------|------------|------------|

    C (F)
e |------------|------------|------------|------------|
B |----1-----1-|----1-----1-|----1-----1-|----1-----0-|
G |----0-----0-|----0-----0-|----0-----0-|----0-----0-|
D |-------0----|-------2----|-------2----|-------2----|
A |-3----------|-3----------|-3----------|-3----------|
E |------------|------------|------------|------------|

     Dm6 Add9
e |------------|------------|------------|------------|
B |----3-----3-|----3-----3-|----3-----3-|----3-----0-|
G |----2-----2-|----2-----2-|----2-----2-|----2-----0-|
D |-------3----|-------3----|-------3----|-------3----|
A |-2----------|-2----------|-2----------|-2----------|
E |------------|------------|------------|------------|

    C (F)
e |------------|------------|------------|------------|
B |----1-----1-|----1-----1-|----1-----1-|----1-----0-|
G |----0-----0-|----0-----0-|----0-----0-|----0-----0-|
D |-------0----|-------2----|-------2----|-------2----|
A |-3----------|-3----------|-3----------|-3----------|
E |------------|------------|------------|------------|

    Dm (Gm)
e |------------|------------|------------|------------|
B |----6-----6-|----6-----6-|----6-----6-|----6-----0-|
G |----7-----7-|----7-----7-|----7-----7-|----7-----0-|
D |-------7----|-------7----|-------7----|-------7----|
A |-5----------|-5----------|-5----------|-5----------|
E |------------|------------|------------|------------|

    Em (Am)
e |------------|------------|------------|------------|
B |----0-----0-|----0-----0-|----0-----0-|----0-----0-|
G |----0-----0-|----0-----0-|----0-----0-|----0-----0-|
D |-------0----|-------2----|-------2----|-------2----|
A |------------|-2----------|-2----------|-2----------|
E |-0----------|------------|------------|------------|

Fin :

     Am (Dm)
e ||--------------|------------|------------|------------|
B ||----1-------1-|----1-----1-|----1-----1-|----1-----1-|
G ||----2-------2-|----2-----2-|----2-----2-|----2-----0-|
D ||-------0^2----|-------2----|-------2----|-------2----|
A ||-0------------|-0----------|-0----------|-0----------|
E ||--------------|------------|------------|------------|

    C (F)
e |--------------|------------|------------|------------|
B |----1-------1-|----1-----1-|----1-----1-|----1-----1-|
G |----0-------0-|----0-----0-|----0-----0-|----0-----0-|
D |-------0^2----|-------2----|-------2----|-------2----|
A |-3------------|-3----------|-3----------|-3----------|
E |--------------|------------|------------|------------|

    Em (Am)
e |--------------|------------|------------|------------|
B |----0-------0-|----0-----0-|----0-----0-|----0-----0-|
G |----0-------0-|----0-----0-|----0-----0-|----0-----0-|
D |-------0^2----|-------2----|-------2----|-------2----|
A |--------------|-2----------|-2----------|-2----------|
E |-0------------|------------|------------|------------|

    Am (Dm)
e |--------------|------------|------------|------------||
B |----1-------1-|----1-----1-|----1-----1-|----1-----1-||
G |----2-------2-|----2-----2-|----2-----2-|----2-----2-|| (x2)
D |-------0^2----|-------2----|-------2----|-------0----||
A |-0------------|-0----------|-0----------|-0----------||
E |--------------|------------|------------|------------||

    Am (Dm)
e |------------|------------|------------|------------||
B |------------|------------|------------|------------||
G |------------|------------|------------|------------||
D |------------|------------|------------|------------||
A |-0----------|------------|------------|------------||
E |------------|------------|------------|------------||



Paroles

C’est étrange mon ange
Comme t’as l’air vulnérable
Comme j’me sens responsable
C’est bizarre ma chérie
Comme j’ai peine à croire
Que tu sois si jolie
C’est super ma choupette
Comme tu grandis vite
A vue d’œil de crevettes
C’est unique j’avoue
Les larmes qu’on a parfois
Ont un tout autre goût

   Si bien que même quand plus rien ne s’oppose à la nuit
   C’est ce que j’ose te jurer ainsi
   Que ne durent que les moments doux
   T’imagines
   C’est comme disait Bashung
   Joséphine

Je ne t’espère ma puce
Même pas de fleuve tranquille
J’en demand’rais pas plus et
Même si ça existe
Comme tu devras bien sûr
Apprendre à être triste
C’est précieux mon amour
La chance de ces moments
Si jamais l’on suspend
Le temps qui suit son cours
Le nôtre je le prends
Et le gard’rai toujours

   Si bien que même quand plus rien ne s’oppose à la nuit
   C’est ce que j’ose te jurer ainsi
   Que ne durent que les moments doux
   T’imagines
   C’est comme disait Bashung
   Joséphine

C’est étonnant ce que l’on se témoigne
C’est tell’ment plein de beaux souvenirs
C’est sûr’ment d’ici que tu t’éloignes
La seule chose que j’aurai à te dire
Comme j’imagine
Que tu auras de qui tenir
Joséphine