Tabsvolo.net - Tablature : Tabarnak


 Les tablatures : 68

Chanson française (2017)

Sans rire (2013)

C'est pas tout ça... (2010)

En attendant (2009)

Bref... Septembre 2008

  • Ma p'tite chanson
  • J'espère...
  • Bref

Jours heureux (2007)

Blancs Manteaux à Volo (2006)

Bien Zarbos (2004)

Tablature : Tabarnak

03-12-2016

Partager cette tablature

Télécharger la version imprimable 


Ecouter un extrait composé de différentes parties de la tablature :



Légende :
||------|| (xN) : Jouer N fois la partie entre les ||
                 t :  taper sur les cordes avec la main droite (les ongles)

Intro :

     C                   Dm                  F            E      Am
e ||-------------------|-------------------|-------------------|-------------------|
B ||------1----t----0--|------6----t----6--|-------------------|------1----t----1--|
G ||------0----t----0--|------7----t----7--|------2----t----1--|------2----t----2--|
D ||-----------t--2----|-----------t--7----|------3----t----2--|-----------t--2----|
A ||-3---------t-------|-5---------t-------|-----------t--2----|-0---------t-------|
E ||-------------------|-------------------|-1---------t-------|-------------------|

    C                   Dm                  F            E      Am                  Am
e |-------------------|-------------------|-------------------|-------------------|-------------------|
B |------1----t----0--|------6----t----6--|-------------------|------1----t----1--|------1----t----0--|
G |------0----t----0--|------7----t----7--|------2----t----1--|------2----t----2--|------2----t----0--|
D |-----------t--2----|-----------t--7----|------3----t----2--|-----------t--2----|-----------t--2----|
A |-3---------t-------|-5---------t-------|-----------t-------|-0---------t-------|-0---------t-------|
E |-------------------|-------------------|-1---------t--0----|-------------------|-------------------|


Couplets :

     G                   F                   E                   Am
e ||-------------------|-------------------|-------------------|-------------------||
B ||------0----t----0--|----------------1--|-----------t----0--|------1----t----0--||
G ||------0----t----0--|------2----t----2--|------1----t----1--|------2----t----0--|| (x3)
D ||-----------t-------|------3----t-------|------2----t-------|-----------t--2----||
A ||-----------t--2----|-----------t--3----|-----------t--2----|-0---------t-------||
E ||-3-----------------|-1---------t-------|-0-----------------|-------------------||

    G                   F                   E                   Am                  Am
e |-------------------|-------------------|-------------------|-------------------|-------------------|
B |------0----t----0--|----------------1--|-----------t----0--|------1------------|------1------------|
G |------0----t----0--|------2----t----2--|------1----t----1--|------2------------|------2------------|
D |-----------t-------|------3----t-------|------2----t-------|-------------------|-------------------|
A |-----------t--2----|-----------t--3----|-----------t--2----|-0-----------------|-0-----------------|
E |-3-----------------|-1---------t-------|-0-----------------|-------------------|-------------------|

Refrains (sauf dernier) :

     C                   Dm                  F            E      Am
e ||-------------------|-------------------|-------------------|-------------------||
B ||------1----t----0--|------6----t----6--|-------------------|------1----t----1--||
G ||------0----t----0--|------7----t----7--|------2----t----1--|------2----t----2--|| (x3)
D ||-----------t--2----|-----------t--7----|------3----t----2--|-----------t--2----||
A ||-3---------t-------|-5---------t-------|-----------t-------|-0---------t-------||
E ||-------------------|-------------------|-1---------t--0----|-------------------||

    C                   Dm                  F            E      Am                  Am
e |-------------------|-------------------|-------------------|-------------------|-------------------|
B |------1----t----0--|------6----t----6--|-------------------|------1----t----1--|------1----t----0--|
G |------0----t----0--|------7----t----7--|------2----t----1--|------2----t----2--|------2----t----0--|
D |-----------t--2----|-----------t--7----|------3----t----2--|-----------t--2----|-----------t--2----|
A |-3---------t-------|-5---------t-------|-----------t-------|-0---------t-------|-0---------t-------|
E |-------------------|-------------------|-1---------t--0----|-------------------|-------------------|

Dernier refrain et fin :


e ||------------------------------------------------------------------------------||
B ||------------------------------------------------------------------------------||
G ||------------------------------------------------------------------------------|| (x3)
D ||------------------------------------------------------------------------------||
A ||------------------------------------------------------------------------------||
E ||------------------------------------------------------------------------------||

e |----------------------------------------|-------------------|-------------------|
B |----------------------------------------|-------------------|------1----t----1--|
G |----------------------------------------|------2----t----1--|------2----t----2--|
D |----------------------------------------|------3----t----2--|-----------t--2----|
A |----------------------------------------|-----------t-------|-0---------t-------|
E |----------------------------------------|-1---------t--0----|-------------------|

     C                   Dm                  F            E      Am
e ||-------------------|-------------------|-------------------|-------------------||
B ||------1----t----0--|------6----t----6--|-------------------|------1----t----1--||
G ||------0----t----0--|------7----t----7--|------2----t----1--|------2----t----2--|| (x3)
D ||-----------t--2----|-----------t--7----|------3----t----2--|-----------t--2----||
A ||-3---------t-------|-5---------t-------|-----------t-------|-0---------t-------||
E ||-------------------|-------------------|-1---------t--0----|-------------------||

    C                   Dm                  F             E                     Am
e |-------------------|------5------------|------1-------------0--|------------------0----------------||
B |------1----t----0--|-----6-------------|-----1-------------0---|-----------------1-----------------||
G |------0----t----0--|----7--------------|----2-------------1----|----------------2------------------||
D |-----------t--2----|---7---------------|---3-------------2-----|---------------2-------------------||
A |-3---------t-------|--5----------------|--3-------------2------|--------------0--------------------||
E |-------------------|-5-----------------|-1-------------0-------|-------------0---------------------||



Paroles

Je ne sais pas de quoi je parle
Je suis très loin d'imaginer
Ce que veut dire le dernier râle
Ne me sentant pas trop concerné
Par les derniers instants de la vie
Quand il faudra quitter ce monde
Et quitte à avoir un avis
Pour vivre les dernières secondes


J'voudrais mourir au bord d'un lac
Partir dans un beau tabarnak
Finir dans l'herbe sur le dos
Dernier soupir les pieds dans l'eau
J'voudrais mourir au bord d'un lac
Partir dans un beau tabarnak
Près d'un p'tit chalet dans les bois
Sur un bout de terrain Québécois


Je ne peux pas me rappeler
Ni m'appuyer sur du vécu
Si ça m'était déjà arrivé
Je pense que je m'en serrai souv'nu
Entre les trente-six mille façons
Ou bien les mille et une manières
Et quitte à trouver le temps long
Comme la première fois et la dernière


J'voudrais mourir au bord d'un lac
Partir dans un beau tabarnak
Finir dans l'herbe sur le dos
Dernier soupir les pieds dans l'eau
J'voudrais mourir au bord d'un lac
Partir dans un beau tabarnak
Près d'un p'tit chalet dans les bois
Sur un bout de terrain Québécois


La belle province c'est personnel
Le tabarnak même sans l'accent
Au moins ça fait pas trop solennel
Et ça s'dit bien en expirant
Comme je n'sais pas de quoi je cause
Si je n'connais rien du sujet
Et quitte à voir la mort en rose
Avant qu'ce soit pour plus jamais


J'voudrais mourir au bord d'un lac
Partir dans un beau tabarnak
Finir dans l'herbe sur le dos
Dernier soupir les pieds dans l'eau
J'voudrais mourir au bord d'un lac
Partir dans un beau tabarnak
Près d'un p'tit chalet dans les bois
Sur un bout de terrain Québécois