Tabsvolo.net - Tablature : Au cas où


 Les tablatures : 68

Chanson française (2017)

Sans rire (2013)

C'est pas tout ça... (2010)

En attendant (2009)

Bref... Septembre 2008

  • Ma p'tite chanson
  • J'espère...
  • Bref

Jours heureux (2007)

Blancs Manteaux à Volo (2006)

Bien Zarbos (2004)

Tablature : Au cas où

24-01-2017

Partager cette tablature

Télécharger la version imprimable 


Ecouter un extrait composé de différentes parties de la tablature :



Légende :
||------|| (xN) : Jouer N fois la partie entre les ||
                 x :  Corde jouée étouffée
                 ^ :  Pull on


Intro :

                                                       C# Add9
     D#m          D#m7    Bb5                 G#m6          G#m6    A#        A#m
e ||----6-6--6----6-6--6|----7-7--7----7-7--6|^---7-7--9----7-7--x|----6-6--6----6-6--6||
B ||----7-7--7----7-7--7|----6-6--6----6-6--6|----6-6--6----6-6--x|----6-6--6----6-6--6||
G ||----8-8--8----6-6--6|----8-8--8----8-8--8|----8-8--8----8-8--x|----7-7--7----6-6--6|| (x2)
D ||----8-8--8-8--8-8--8|-9--9-9--9-9--9-9--9|-6--6-6--6-6--6-6--x|----8-8--8-8--8-8--8||
A ||-6------------------|--------------------|--------------------|--------------------||
E ||--------------------|--------------------|--------------------|-6------------------||

Couplets :

                                                       C# Add9
     D#m          D#m7    Bb5                 G#m6          G#m6    A#        A#m
e ||----6-6--6----6-6--6|----7-7--7----7-7--6|^---7-7--9----7-7--x|----6-6--6----6-6--6||
B ||----7-7--7----7-7--7|----6-6--6----6-6--6|----6-6--6----6-6--x|----6-6--6----6-6--6||
G ||----8-8--8----6-6--6|----8-8--8----8-8--8|----8-8--8----8-8--x|----7-7--7----6-6--6|| (x3)
D ||----8-8--8-8--8-8--8|-9--9-9--9-9--9-9--9|-6--6-6--6-6--6-6--x|----8-8--8-8--8-8--8||
A ||-6------------------|--------------------|--------------------|--------------------||
E ||--------------------|--------------------|--------------------|-6------------------||

                                                      C# Add9
    D#m          D#m7    Bb5                 G#m6          G#m6    A#        A#m        A#        A#m
e |----6-6--6----6-6--6|----7-7--7----7-7--6|-^--7-7--9----7-7--x|----6-6--6----6-6--6|----6-6--6----6-6--6|
B |----7-7--7----7-6--6|----6-6--6----6-6--6|----6-6--6----6-6--x|----6-6--6----6-6--6|----6-6--6----6-6--6|
G |----8-8--8----6-6--6|----8-8--8----8-8--6|----8-8--8----8-8--x|----7-7--7----6-6--6|----7-7--7----6-6--6|
D |----8-8--8-8--8-8--8|-9--9-9--9-9--9-9--6|-6--6-6--6-6--6-6--x|----8-8--8-8--8-8--8|----8-8--8-8--8-8--8|
A |-6------------------|--------------------|--------------------|--------------------|--------------------|
E |--------------------|--------------------|--------------------|-6------------------|-6------------------|

    G#m6                                      C#                          C#
e |----7-7--7----7-7--7|----7-7--7----7-7--x|----9--9---9------9--9---9-|---------------------------|
B |----x-x--x----x-x--x|----x-x--x----x-x--x|----9--9---9------9--9---9-|---------------------------|
G |----8-8--8-8--8-8--8|----8-8--8-8--8-8--x|----10-10--10-----10-10--10|---------------------------|
D |-6--6-6--6----6-6--6|-6--6-6--6----6-6---|----11-11--11-11--11-11--11|---------------------------|
A |--------------------|--------------------|---------------------------|---------------------------|
E |--------------------|--------------------|-9-------------------------|-9-------------------------|

Refrains :

    F#                   C#                         D#m                  C#
e |----2-2--2----2-2--x|----9--9---9------9--9---x|----6-6--6----6-6--x|----9--9---9------9--9---x|
B |----2-2--2----2-2--x|----9--9---9------9--9---x|----7-7--7----7-7--x|----9--9---9------9--9---x|
G |----3-3--3----3-3--x|----10-10--10-----10-10--x|----8-8--8----8-8--x|----10-10--10-----10-10--x|
D |----4-4--4-4--4-4--x|----11-11--11-11--11-11--x|----8-8--8-8--8-8--x|----11-11--11-11--11-11--x|
A |----4-4--4----4-4---|----11-11--11-----11-11---|-6--6-6--6----6-6---|----11-11--11-----11-11---|
E |-2------------------|-9------------------------|--------------------|-9------------------------|

    F#                   C#                         D#m                  C#                         C#
e |----2-2--2----2-2--x|----9--9---9------9--9---x|----6-6--6----6-6--x|----9--9---9------9--9---x|----9--9---9------9--9---x|
B |----2-2--2----2-2--x|----9--9---9------9--9---x|----7-7--7----7-7--x|----9--9---9------9--9---x|----9--9---9------9--9---x|
G |----3-3--3----3-3--x|----10-10--10-----10-10--x|----8-8--8----8-8--x|----10-10--10-----10-10--x|----10-10--10-----10-10--x|
D |----4-4--4-4--4-4--x|----11-11--11-11--11-11--x|----8-8--8-8--8-8--x|----11-11--11-11--11-11--x|----11-11--11-11--11-11--x|
A |----4-4--4----4-4---|----11-11--11-----11-11---|-6--6-6--6----6-6---|----11-11--11-----11-11---|----11-11--11-----11-11---|
E |-2------------------|-9------------------------|--------------------|-9------------------------|-9------------------------|

                                                       C# Add9
     D#m          D#m7    Bb5                 G#m6          G#m6    A#        A#m
e ||----6-6--6----6-6--6|----7-7--7----7-7--6|^---7-7--9----7-7--x|----6-6--6----6-6--6||
B ||----7-7--7----7-7--7|----6-6--6----6-6--6|----6-6--6----6-6--x|----6-6--6----6-6--6||
G ||----8-8--8----6-6--6|----8-8--8----8-8--8|----8-8--8----8-8--x|----7-7--7----6-6--6|| (x2)
D ||----8-8--8-8--8-8--8|-9--9-9--9-9--9-9--9|-6--6-6--6-6--6-6--x|----8-8--8-8--8-8--8||
A ||-6------------------|--------------------|--------------------|--------------------||
E ||--------------------|--------------------|--------------------|-6------------------||

{ Couplet }


{ Refrain }


Pont :

    G#m                                                    C#
e |-----11-11--11-----11-11-11|-----11-11--11-----11-11-x|----9--9---9------9--9--9-|----9--9---9------9--9--x|
B |-----12-12--12-----12-12-12|-----12-12--12-----12-12-x|----9--9---9------9--9--9-|----9--9---9------9--9--x|
G |-----13-13--13-----13-13-13|-----13-13--13-----13-13-x|----10-10--10-----10-10-10|----10-10--10-----10-10-x|
D |-----13-13--13-13--13-13-13|-----13-13--13-13--13-13--|----11-11--11-11--11-11-11|----11-11--11-11--11-11-x|
A |-----11-11--11-----11-11-11|-----11-11--11-----11-11--|----11-11--11-----11-11-11|----11-11--11-----11-11--|
E |-11------------------------|-11-----------------------|-9------------------------|-9-----------------------|

    D#m                                       B
e |----6-6--6----6-6--6|----6-6--6----6-6--x|----7-7--7----7-7--7|----7-7--7----7-7--x|
B |----7-7--7----7-7--7|----7-7--7----7-7--x|----7-7--7----7-7--7|----7-7--7----7-7--x|
G |----8-8--8----8-8--8|----8-8--8----8-8--x|----8-8--8----8-8--8|----8-8--8----8-8--x|
D |----8-8--8-8--8-8--8|----8-8--8-8--8-8--x|----9-9--9-9--9-9--9|----9-9--9-9--9-9--x|
A |-6------------------|-6------------------|----9-9--9----9-9--9|----9-9--9----9-9---|
E |--------------------|--------------------|-7------------------|-7------------------|

    G#m                                                    Bdim
e |-----11-11--11-----11-11-11|-----11-11--11-----11-11-x|----10-10--10-----10-10--10|----10-10--10-----10-10--x|
B |-----12-12--12-----12-12-12|-----12-12--12-----12-12-x|----9--9---9------9--9---9-|----9--9---9------9--9---x|
G |-----13-13--13-----13-13-13|-----13-13--13-----13-13-x|----10-10--10-10--10-10--10|----10-10--10-10--10-10--x|
D |-----13-13--13-13--13-13-13|-----13-13--13-13--13-13--|-9-------------------------|-9------------------------|
A |-----11-11--11-----11-11-11|-----11-11--11-----11-11--|---------------------------|--------------------------|
E |-11------------------------|-11-----------------------|---------------------------|--------------------------|

    G#dim                G#dim
e |----7-7--7----7-7--7|--------------------|
B |----6-6--6----6-6--6|--------------------|
G |----7-7--7-7--7-7--7|--------------------|
D |-6------------------|-6------------------|
A |--------------------|--------------------|
E |--------------------|--------------------|

Fin :

Mais c'est juste, au cas où...

                F#                   C#                         D#m                  C#
            e |----2-2--2----2-2--x|----9--9---9------9--9---x|----6-6--6----6-6--x|----9--9---9------9--9---x|
            B |----2-2--2----2-2--x|----9--9---9------9--9---x|----7-7--7----7-7--x|----9--9---9------9--9---x|
            G |----3-3--3----3-3--x|----10-10--10-----10-10--x|----8-8--8----8-8--x|----10-10--10-----10-10--x|
            D |----4-4--4-4--4-4--x|----11-11--11-11--11-11--x|----8-8--8-8--8-8--x|----11-11--11-11--11-11--x|
            A |----4-4--4----4-4---|----11-11--11-----11-11---|-6--6-6--6----6-6---|----11-11--11-----11-11---|
            E |-2------------------|-9------------------------|--------------------|-9------------------------|

    F#                   C#                         D#m                  C#
e |----2-2--2----2-2--x|----9--9---9------9--9---x|----6-6--6----6-6--x|----9--9---9------9--9---9-|---9--9---9------9--9----|
B |----2-2--2----2-2--x|----9--9---9------9--9---x|----7-7--7----7-7--x|----9--9---9------9--9---9-|---9--9---9------9--9----|
G |----3-3--3----3-3--x|----10-10--10-----10-10--x|----8-8--8----8-8--x|----10-10--10-----10-10--10|---10-10--10-----10-10---|
D |----4-4--4-4--4-4--x|----11-11--11-11--11-11--x|----8-8--8-8--8-8--x|--------------11-----------|-9-----------------------|
A |----4-4--4----4-4---|----11-11--11-----11-11---|-6--6-6--6----6-6---|---------------------------|-------------11----------|
E |-2------------------|-9------------------------|--------------------|-9-------------------------|-------------------------|

    F#
e |------2--------------||
B |-----2---------------||
G |----3----------------||
D |---4-----------------||
A |--4------------------||
E |-2-------------------||


Paroles

Au cas où, j'aimerais que mes enfants
Apprennent vite comment survivre en milieu hostile
Au cas où, qu'ils sachent chasser la nuit
Recueillir l'eau de pluie à toutes fins utiles
Au cas où, j'aimerais que mes enfants
Sachent parfaitement suivre une piste à la trace
Au cas où, comment l'on se protège
D'une tempête de neige en creusant dans la glace

Et si vous trouvez, que je leur en demande peut-être beaucoup
C'est juste


Au cas où l'on est des raisons de dire que le futur est proche
Au cas où, l'on verrait l'avenir clair, comme de l'huile de roche
Comme ça se réchauffe un peu
Comme ça se réchauffe un peu


Au cas où, j'aimerais que mes enfants
Fassent peu de sentiments envers leur prochain
Au cas où, viennent les temps barbares
Nourris aux désespoirs des émeutes de la faim
Au cas où, j'aimerais que mes enfants
S'habituent dès maintenant à manger des racines
Au cas où, l'on doit se contenter de ne rien voir pousser que dans des champs de ruines

Et si vous trouvez, que je leur en demande peut-être beaucoup
C'est juste


Au cas où l'on est des raisons de dire que le futur est proche
Au cas où, l'on verrait l'avenir clair, comme de l'huile de roche
Comme ça se réchauffe un peu
Comme ça se réchauffe un peu


Évidemment j'aurais préféré, aider mon p'tit gars à traverser
Des montagnes de champs de fleurs, et jouer pour rire à se faire peur
Évidemment j'aurais bien aimé, ne pas avoir à y penser

Mais c'est juste, au cas où...