Tabsvolo.net - Tablature : 17 ans


 Les tablatures : 68

Chanson française (2017)

Sans rire (2013)

C'est pas tout ça... (2010)

En attendant (2009)

Bref... Septembre 2008

  • Ma p'tite chanson
  • J'espère...
  • Bref

Jours heureux (2007)

Blancs Manteaux à Volo (2006)

Bien Zarbos (2004)

Tablature : 17 ans

30-01-2013

Partager cette tablature

Télécharger la version imprimable




Ecouter un extrait composé de différentes parties de la tablature :



Légende :
                 x : Jouer les cordes étouffées
||------|| (xN) : Jouer N fois la partie entre les ||
                 ^ : Pull on (poser le doigt sur la case sans la gratter)


Intro :

     C#m                       C#m aug5                  F#m6
e ||------------|------------|------------|------------|------------|------------|
B ||----5-----5-|----5-----5-|----5-----5-|----5-----5-|----7-----7-|----7-----7-|
G ||----6-----6-|----6-----6-|----6-----6-|----6-----6-|----6-----6-|----6-----6-|
D ||-------6----|-------6----|-------6----|-------6----|-------7----|-------7----|
A ||-4----------|-4----------|-0----------|-0----------|-6----------|-6----------|
E ||------------|------------|------------|------------|------------|------------|

    G#
e |------------|------------|------------|------------|
B |----4-----4-|------------|------------|------------|
G |----5-----5-|------------|------------|------------|
D |------------|-6----------|------------|------------|
A |-------6----|------------|------------|------------|
E |-4----------|------------|------------|------------|

Couplet 1 et 2 :

    C#m                       C#m aug5                  F#m6
e |------------|------------|------------|------------|------------|------------|
B |----5-----5-|----5-----5-|----5-----5-|----5-----5-|----7-----7-|----7-----7-|
G |----6-----6-|----6-----6-|----6-----6-|----6-----6-|----6-----6-|----6-----6-|
D |-------6----|-------6----|-------6----|-------6----|-------7----|-------7----|
A |-4----------|-4----------|-0----------|-0----------|-6----------|-6----------|
E |------------|------------|------------|------------|------------|------------|

    G#                        C#m                       C#m aug5
e |------------|------------|------------|------------|------------|------------|
B |----4-----4-|----4-----4-|----5-----5-|----5-----5-|----5-----5-|----5-----5-|
G |----5-----5-|----5-----5-|----6-----6-|----6-----6-|----6-----6-|----6-----6-|
D |------------|-6----------|-------6----|-------6----|-------6----|-------6----|
A |-------6----|-------6----|-4----------|-4----------|-0----------|-0----------|
E |-4----------|------------|------------|------------|------------|------------|

    F#m6                      G#
e |------------|------------|------------|------------|
B |----7-----7-|----7-----7-|----4-----4-|----4-----4-|
G |----6-----6-|----6-----6-|----5-----5-|----5-----5-|
D |-------7----|-------7----|------------|-6----------|
A |-6----------|-6----------|-------6----|-------6----|
E |------------|------------|-4----------|------------|

Premier refrain :

    F#m                             G#                        E
e |---------------|---------------|------------|------------|------------|------------|
B |----10------10-|----10------10-|----4-----4-|----4-----4-|----0-----0-|----0-----0-|
G |----11------11-|----11------11-|----5-----5-|----5-----5-|----1-----1-|----1-----1-|
D |--------11-----|--------11-----|------------|-6----------|------------|-2----------|
A |-9-------------|-9-------------|-------6----|-------6----|-------2----|-------2----|
E |---------------|---------------|-4----------|------------|-0----------|------------|

    B                         F#m                             G#
e |------------|------------|---------------|---------------|------------|-------5----|
B |----7-----7-|----7-----7-|----10------10-|----10------10-|----4-----4-|----4--4----|
G |----8-----8-|----8-----8-|----11------11-|----11------11-|----5-----5-|----5--5----|
D |------------|-9----------|--------11-----|--------11-----|------------|-6-----6----|
A |-------9----|-------9----|-9-------------|-9-------------|-------6----|-------6----|
E |-7----------|------------|---------------|---------------|-4----------|-------4----|

     C#m          G#m              A
e ||------------|----------------|------------|------------||
B ||----5-----5-|-----12------12-|----5-----5-|----5-----5-||
G ||----6-----6-|-----13------13-|----6-----6-|----6-----6-|| (x2)
D ||-------6----|---------13-----|------------|-7----------||
A ||-4----------|-11-------------|-------7----|-------7----||
E ||------------|----------------|-5----------|------------||

Deuxième refrain :

    F#m                             G#                        E
e |---------------|---------------|------------|------------|------------|------------|
B |----10------10-|----10------10-|----4-----4-|----4-----4-|----0-----0-|----0-----0-|
G |----11------11-|----11------11-|----5-----5-|----5-----5-|----1-----1-|----1-----1-|
D |--------11-----|--------11-----|------------|-6----------|------------|-2----------|
A |-9-------------|-9-------------|-------6----|-------6----|-------2----|-------2----|
E |---------------|---------------|-4----------|------------|-0----------|------------|

    B                         F#m                             G#
e |------------|------------|---------------|---------------|------------|-------5----|
B |----7-----7-|----7-----7-|----10------10-|----10------10-|----4-----4-|----4--4----|
G |----8-----8-|----8-----8-|----11------11-|----11------11-|----5-----5-|----5--5----|
D |------------|-9----------|--------11-----|--------11-----|------------|-6-----6----|
A |-------9----|-------9----|-9-------------|-9-------------|-------6----|-------6----|
E |-7----------|------------|---------------|---------------|-4----------|-------4----|

    C#m          G#m              A
e |------------|----------------|------------|-------5--x-x-|
B |----5-----5-|-----12------12-|----5-----5-|-------5--x-x-|
G |----6-----6-|-----13------13-|----6-----6-|-------6--x-x-|
D |-------6----|---------13-----|------------|-7-----7--x-x-|
A |-4----------|-11-------------|-------7----|-------7--x-4-|
E |------------|----------------|-5----------|-------5--x-4-|

    C#m                 G#m                   A                  A
e |------6-x-x-6-x-x--|-------11-x-x-11-x-x-|------5-x-x-5-x-x-|------5-x-x-5-x-x-|
B |------5-x-x-5-x-x--|-------12-x-x-12-x-x-|------5-x-x-5-x-x-|------5-x-x-5-x-x-|
G |------6-x-x-6-x-x--|-------13-x-x-13-x-x-|------6-x-x-6-x-x-|------6-x-x-6-x-x-|
D |------6-x-x-6-x-x--|-------13-x-x-13-x-x-|------7-x-x-7-x-x-|------7-x-x-7-x-x-|
A |-4----4-x-x-4-x-11-|-11----11-x-x-11-x-7-|-7----7-x-x-7-x-7-|-7----7-x-x-7-x-4-|
E |-4----4-x-x-4-x-11-|-11----11-x-x-11-x-5-|-5----5-x-x-5-x-5-|-5----5-x-x-5-x-4-|

Troisième couplet :

    C#m                                   A
e |------4-x-x-4-x-x-|------4-x-x-4-x-x-|------5-x-x-5-x-x-|------5-x-x-5-x-x-|
B |------5-x-x-5-x-x-|------5-x-x-5-x-x-|------5-x-x-5-x-x-|------5-x-x-5-x-x-|
G |------6-x-x-6-x-x-|------6-x-x-6-x-x-|------6-x-x-6-x-x-|------6-x-x-6-x-x-|
D |------6-x-x-6-x-x-|------6-x-x-6-x-x-|------7-x-x-7-x-x-|------7-x-x-7-x-x-|
A |-4----4-x-x-4-x-4-|-4----4-x-x-4-x-7-|-7----7-x-x-7-x-7-|-7----7-x-x-7-x-6-|
E |-4----4-x-x-4-x-4-|-4----4-x-x-4-x-5-|-5----5-x-x-5-x-5-|-5----5-x-x-5-x-x-|

    F#m6                                  G#
e |------x-x-x-x-x-x-|------x-x-x-x-x-x-|------4-x-x-4-x-x-|------4-x-x-4-x-x-|
B |------7-x-x-6-x-x-|------7-x-x-6-x-x-|------4-x-x-4-x-x-|------4-x-x-4-x-x-|
G |------6-x-x-7-x-x-|------6-x-x-7-x-x-|------5-x-x-5-x-x-|------5-x-x-5-x-x-|
D |------7-x-x-6-x-x-|------7-x-x-6-x-x-|------6-x-x-6-x-x-|------6-x-x-6-x-x-|
A |-6----6-x-x-7-x-6-|-6----6-x-x-7-x-6-|-6----6-x-x-6-x-6-|-6----6-x-x-6-x-4-|
E |-x----x-x-x-x-x-x-|-x----x-x-x-x-x-4-|-4----4-x-x-4-x-4-|-4----4-x-x-4-x-4-|

    C#m                                   A
e |------4-x-x-4-x-x-|------4-x-x-4-x-x-|------5-x-x-5-x-x-|------5-x-x-5-x-x-|
B |------5-x-x-5-x-x-|------5-x-x-5-x-x-|------5-x-x-5-x-x-|------5-x-x-5-x-x-|
G |------6-x-x-6-x-x-|------6-x-x-6-x-x-|------6-x-x-6-x-x-|------6-x-x-6-x-x-|
D |------6-x-x-6-x-x-|------6-x-x-6-x-x-|------7-x-x-7-x-x-|------7-x-x-7-x-x-|
A |-4----4-x-x-4-x-4-|-4----4-x-x-4-x-7-|-7----7-x-x-7-x-7-|-7----7-x-x-7-x-6-|
E |-4----4-x-x-4-x-4-|-4----4-x-x-4-x-5-|-5----5-x-x-5-x-5-|-5----5-x-x-5-x-x-|

    F#m6                                  G#
e |------x-x-x-x-x-x-|------x-x-x-x-x-x-|------4-x-x-4-x-x-|------4-x-x-4-x-x-|
B |------7-x-x-6-x-x-|------7-x-x-6-x-x-|------4-x-x-4-x-x-|------4-x-x-4-x-x-|
G |------6-x-x-7-x-x-|------6-x-x-7-x-x-|------5-x-x-5-x-x-|------5-x-x-5-x-x-|
D |------7-x-x-6-x-x-|------7-x-x-6-x-x-|------6-x-x-6-x-x-|------6-x-x-6-x-x-|
A |-6----6-x-x-7-x-6-|-6----6-x-x-7-x-6-|-6----6-x-x-6-x-6-|-6----6-x-x-6-x-9-|
E |-x----x-x-x-x-x-x-|-x----x-x-x-x-x-4-|-4----4-x-x-4-x-4-|-4----4-x-x-4-x-9-|

Troisième refrain :

    F#m                                       G#
e |------9--x-x-9--x-x-|------9--x-x-9--x-x-|------4-x-x-4-x-x-|------4-x-x-4-x-x-|
B |------10-x-x-10-x-x-|------10-x-x-10-x-x-|------4-x-x-4-x-x-|------4-x-x-4-x-x-|
G |------11-x-x-11-x-x-|------11-x-x-11-x-x-|------5-x-x-5-x-x-|------5-x-x-5-x-x-|
D |------11-x-x-11-x-x-|------11-x-x-11-x-x-|------6-x-x-6-x-x-|------6-x-x-6-x-x-|
A |-9----9--x-x-9--x-9-|-9----9--x-x-9--x-6-|-6----6-x-x-6-x-6-|-6----6-x-x-6-x-2-|
E |-9----9--x-x-9--x-9-|-9----9--x-x-9--x-4-|-4----4-x-x-4-x-4-|-4----4-x-x-4-x-0-|

    E                                     B
e |------0-x-x-0-x-x-|------0-x-x-0-x-x-|------7-x-x-7-x-x-|------7---7-7-x-x-|
B |------0-x-x-0-x-x-|------0-x-x-0-x-x-|------7-x-x-7-x-x-|------7---7-7-x-x-|
G |------1-x-x-1-x-x-|------1-x-x-1-x-x-|------8-x-x-8-x-x-|------8---8-8-x-x-|
D |------2-x-x-2-x-x-|------2-x-x-2-x-x-|------9-x-x-9-x-x-|------9---9-9-x-x-|
A |-2----2-x-x-2-x-2-|-2----2-x-x-2-x-9-|-9----9-x-x-9-x-7-|-7^9--9---9-9-x-9-|
E |-0----0-x-x-0-x-0-|-0----0-x-x-0-x-7-|-7----7-x-x-7-x-7-|-7^7--7---7-7-x-9-|

    F#m                                       G#
e |------9--x-x-9--x-x-|------9--x-x-9--x-x-|-4----------|------------|
B |------10-x-x-10-x-x-|------10-x-x-10-x-x-|-4----------|------------|
G |------11-x-x-11-x-x-|------11-x-x-11-x-x-|-5----------|------------|
D |------11-x-x-11-x-x-|------11-x-x-11-x-x-|-6----------|------------|
A |-9----9--x-x-9--x-9-|-9----9--x-x-9--x-6-|-6----------|------------|
E |-9----9--x-x-9--x-9-|-9----9--x-x-9--x-4-|-4----------|------------|

    C#m          G#m              A
e |------------|----------------|------------|-------5--x-x-|
B |----5-----5-|-----12------12-|----5-----5-|-------5--x-x-|
G |----6-----6-|-----13------13-|----6-----6-|-------6--x-x-|
D |-------6----|---------13-----|------------|-7-----7--x-x-|
A |-4----------|-11-------------|-------7----|-------7--x-4-|
E |------------|----------------|-5----------|-------5--x-4-|

    C#m                 G#m                   E                  F#
e |------6-x-x-6-x-x--|-------11-x-x-11-x-x-|------0-x-x-0-x-x-|------2-x-x-2-x-x-|
B |------5-x-x-5-x-x--|-------12-x-x-12-x-x-|------0-x-x-0-x-x-|------2-x-x-2-x-x-|
G |------6-x-x-6-x-x--|-------13-x-x-13-x-x-|------1-x-x-1-x-x-|------3-x-x-3-x-x-|
D |------6-x-x-6-x-x--|-------13-x-x-13-x-x-|------2-x-x-2-x-x-|------4-x-x-4-x-x-|
A |-4----4-x-x-4-x-11-|-11----11-x-x-11-x-2-|-2----2-x-x-2-x-4-|-4----4-x-x-4-x-4-|
E |-4----4-x-x-4-x-11-|-11----11-x-x-11-x-0-|-0----0-x-x-0-x-2-|-2----2-x-x-2-x-4-|




    C#m                                   A
e |------4-x-x-4-x-x-|------4-x-x-4-x-x-|------5-x-x-5-x-x-|------5-x-x-5-x-x-|
B |------5-x-x-5-x-x-|------5-x-x-5-x-x-|------5-x-x-5-x-x-|------5-x-x-5-x-x-|
G |------6-x-x-6-x-x-|------6-x-x-6-x-x-|------6-x-x-6-x-x-|------6-x-x-6-x-x-|
D |------6-x-x-6-x-x-|------6-x-x-6-x-x-|------7-x-x-7-x-x-|------7-x-x-7-x-x-|
A |-4----4-x-x-4-x-4-|-4----4-x-x-4-x-7-|-7----7-x-x-7-x-7-|-7----7-x-x-7-x-6-|
E |-4----4-x-x-4-x-4-|-4----4-x-x-4-x-5-|-5----5-x-x-5-x-5-|-5----5-x-x-5-x-x-|

    F#m6                                  G#
e |------x-x-x-x-x-x-|------x-x-x-x-x-x-|------4-x-x-4-x-x-|------4-x-x-4-x-x-|
B |------7-x-x-6-x-x-|------7-x-x-6-x-x-|------4-x-x-4-x-x-|------4-x-x-4-x-x-|
G |------6-x-x-7-x-x-|------6-x-x-7-x-x-|------5-x-x-5-x-x-|------5-x-x-5-x-x-|
D |------7-x-x-6-x-x-|------7-x-x-6-x-x-|------6-x-x-6-x-x-|------6-x-x-6-x-x-|
A |-6----6-x-x-7-x-6-|-6----6-x-x-7-x-6-|-6----6-x-x-6-x-6-|-6----6-x-x-6-x-4-|
E |-x----x-x-x-x-x-x-|-x----x-x-x-x-x-4-|-4----4-x-x-4-x-4-|-4----4-x-x-4-x-4-|

    C#m                                   A
e |------4-x-x-4-x-x-|------4-x-x-4-x-x-|------5-x-x-5-x-x-|------5-x-x-5-x-x-|
B |------5-x-x-5-x-x-|------5-x-x-5-x-x-|------5-x-x-5-x-x-|------5-x-x-5-x-x-|
G |------6-x-x-6-x-x-|------6-x-x-6-x-x-|------6-x-x-6-x-x-|------6-x-x-6-x-x-|
D |------6-x-x-6-x-x-|------6-x-x-6-x-x-|------7-x-x-7-x-x-|------7-x-x-7-x-x-|
A |-4----4-x-x-4-x-4-|-4----4-x-x-4-x-7-|-7----7-x-x-7-x-7-|-7----7-x-x-7-x-6-|
E |-4----4-x-x-4-x-4-|-4----4-x-x-4-x-5-|-5----5-x-x-5-x-5-|-5----5-x-x-5-x-x-|

    F#m6                                  G#
e |------x-x-x-x-x-x-|------x-x-x-x-x-x-|------4-4-4-4-4-4-|-4------------|
B |------7-x-x-6-x-x-|------7-x-x-6-x-x-|------4-4-4-4-4-4-|-4------------|
G |------6-x-x-7-x-x-|------6-x-x-7-x-x-|------5-5-5-5-5-5-|-5------------|
D |------7-x-x-6-x-x-|------7-x-x-6-x-x-|------6-6-6-6-6-6-|-6------------|
A |-6----6-x-x-7-x-6-|-6----6-x-x-7-x-6-|-6----6-6-6-6-6-6-|-6------------|
E |-x----x-x-x-x-x-x-|-x----x-x-x-x-x-4-|-4----4-4-4-4-4-4-|-4------------|

Dernier couplet :

    C#m                       C#m aug5                  F#m6
e |------------|------------|------------|------------|------------|------------|
B |----5-----5-|----5-----5-|----5-----5-|----5-----5-|----7-----7-|----7-----7-|
G |----6-----6-|----6-----6-|----6-----6-|----6-----6-|----6-----6-|----6-----6-|
D |-------6----|-------6----|-------6----|-------6----|-------7----|-------7----|
A |-4----------|-4----------|-0----------|-0----------|-6----------|-6----------|
E |------------|------------|------------|------------|------------|------------|

    G#                        C#m                       C#m aug5
e |------------|------------|------------|------------|------------|------------|
B |----4-----4-|----4-----4-|----5-----5-|----5-----5-|----5-----5-|----5-----5-|
G |----5-----5-|----5-----5-|----6-----6-|----6-----6-|----6-----6-|----6-----6-|
D |------------|-6----------|-------6----|-------6----|-------6----|-------6----|
A |-------6----|-------6----|-4----------|-4----------|-0----------|-0----------|
E |-4----------|------------|------------|------------|------------|------------|

    F#m6                      G#
e |------------|------------|------------|-------4----|
B |----7-----7-|----7-----7-|----4-----4-|-------4----|
G |----6-----6-|----6-----6-|----5-----5-|-------5----|
D |-------7----|-------7----|------------|-6-----6----|
A |-6----------|-6----------|-------6----|-------6----|
E |------------|------------|-4----------|-------4----|

Dernier refrain et fin :

    F#m                                       G#
e |------9--x-x-9--x-x-|------9--x-x-9--x-x-|------4-x-x-4-x-x-|------4-x-x-4-x-x-|
B |------10-x-x-10-x-x-|------10-x-x-10-x-x-|------4-x-x-4-x-x-|------4-x-x-4-x-x-|
G |------11-x-x-11-x-x-|------11-x-x-11-x-x-|------5-x-x-5-x-x-|------5-x-x-5-x-x-|
D |------11-x-x-11-x-x-|------11-x-x-11-x-x-|------6-x-x-6-x-x-|------6-x-x-6-x-x-|
A |-9----9--x-x-9--x-9-|-9----9--x-x-9--x-6-|-6----6-x-x-6-x-6-|-6----6-x-x-6-x-2-|
E |-9----9--x-x-9--x-9-|-9----9--x-x-9--x-4-|-4----4-x-x-4-x-4-|-4----4-x-x-4-x-0-|

    E                                     B
e |------0-x-x-0-x-x-|------0-x-x-0-x-x-|------7-x-x-7-x-x-|------7-x-x-7-x-x-|
B |------0-x-x-0-x-x-|------0-x-x-0-x-x-|------7-x-x-7-x-x-|------7-x-x-7-x-x-|
G |------1-x-x-1-x-x-|------1-x-x-1-x-x-|------8-x-x-8-x-x-|------8-x-x-8-x-x-|
D |------2-x-x-2-x-x-|------2-x-x-2-x-x-|------9-x-x-9-x-x-|------9-x-x-9-x-x-|
A |-2----2-x-x-2-x-2-|-2----2-x-x-2-x-9-|-9----9-x-x-9-x-9-|-9----9-x-x-9-x-9-|
E |-0----0-x-x-0-x-0-|-0----0-x-x-0-x-7-|-7----7-x-x-7-x-7-|-7----7-x-x-7-x-9-|

    F#m                                       G#
e |------9--x-x-9--x-x-|------9--x-x-9--x-x-|------------|-------4-----|
B |------10-x-x-10-x-x-|------10-x-x-10-x-x-|------------|-------4-----|
G |------11-x-x-11-x-x-|------11-x-x-11-x-x-|------------|-------5-----|
D |------11-x-x-11-x-x-|------11-x-x-11-x-x-|------------|-------6-----|
A |-9----9--x-x-9--x-9-|-9----9--x-x-9--x-6-|-6--6--6--6-|-6--6--6-----|
E |-9----9--x-x-9--x-9-|-9----9--x-x-9--x-4-|-4--4--4--4-|-4--4--4-----|

     C#m          G#m              A
e ||------------|----------------|------------|------------||
B ||----5-----5-|-----12------12-|----5-----5-|----5-----5-||
G ||----6-----6-|-----13------13-|----6-----6-|----6-----6-|| (x2)
D ||-------6----|---------13-----|------------|-7----------||
A ||-4----------|-11-------------|-------7----|-------7----||
E ||------------|----------------|-5----------|------------||

    C#m          G#m              A                          C#m
e |------------|----------------|------------|------------|-------4----||
B |----5-----5-|-----12------12-|----5-----5-|----5-----5-|------5-----||
G |----6-----6-|-----13------13-|----6-----6-|----6-----6-|-----6------||
D |-------6----|---------13-----|------------|-7----------|----6-------||
A |-4----------|-11-------------|-------7----|-------7----|---4--------||
E |------------|----------------|-5----------|------------|--4---------||


Paroles

Petit carré de jardin, cabanne et tondeuse à gazon
Le même âge que mes voisins, une voiture une maison
Je paye mes impots ma retraite, j'me laisse aller dans les bourr'lets
Et quand je reçois pour une fête on a des enfants à coucher

Quand j'avais 17 ans
Je me moquais du vieux qui faisait du vélo tout seul
Comme est passé le temps
Et qu'on m'appelle "Monsieur"
Je repense à l'ado, qui se foutait de ma geule

Si je pouvais me croiser, je pense que j'me f'rais un peu peur
Ma femme que j'ai jamais recontré, mes gosses qui ont l'âge de ma p'tite soeur
Je m'écout'rais attentif, me moquer de ma coiffure
Rock 'n Roll alternatif, sexe drogue alcool et no futur

Quand j'avais 17 ans
Je me moquais du vieux qui faisait du vélo tout seul
Comme est passé le temps
Et qu'on m'appelle "Monsieur"
Je repense à l'ado, qui se foutait de ma geule

Déscente à fond sur le guidon, en danseuse pour faire l'effort
Une main qui choppe le bidon, c'est dur à croire je fais du sport
Chemin de terre petit village, où je fais s'engueler les chiens
Mon existance prend le virage, ça va rouler je me souviens

Quand j'avais 17 ans
Je me moquais du vieux qui faisait du vélo tout seul
Comme est passé le temps
Et qu'on m'appelle "Monsieur"
Je repense à l'ado, qui se foutait de ma geule
Je repense à l'ado, qui se foutait de ma geule

Tu tulu tu tu tulu tu...

Je ne suis plus à l'école, derrière moi les contrôles de maths
Ancien fumeur et quand j'picole, je ne fini plus à quatres pates
Bientôt la moitié d'une vie, bien loin de l'adolescence
C'est pas gagné c'est pas fini, mais des fois quand j'y repense

Comme est passé le temps Et qu'on m'appelle "Monsieur" quand je fais du vélo tout seul
Si j'ai plus 17 ans
Et sans être trop vieux
Quand je croise un ado, je me fous de sa gueule
Quand je croise un ado, je me fous de ma gueule