Tabsvolo.net - Tablature : Sans rire


 Les tablatures : 68

Chanson française (2017)

Sans rire (2013)

C'est pas tout ça... (2010)

En attendant (2009)

Bref... Septembre 2008

  • Ma p'tite chanson
  • J'espère...
  • Bref

Jours heureux (2007)

Blancs Manteaux à Volo (2006)

Bien Zarbos (2004)

Tablature : Sans rire

20-02-2013

Partager cette tablature

Télécharger la version imprimable




Ecouter un extrait composé de différentes parties de la tablature :



Légende :
||------|| (xN) : Jouer N fois la partie entre les ||
                 x : Jouer la corde étouffée


Intro :

     G                                       C
e ||------3-3------3---|------3-3------3---|------0-0------0---|------0-0------0---|
B ||------0-0------0---|------0-0------0---|------1-1------1---|------1-1------1---|
G ||------0-0------0---|------0-0------0---|------0-0----0-0---|------0-0----0-0---|
D ||----0-0-0----0-0-0-|----0-0-0----0-0-0-|----2-2-2-2----2-2-|----2-2-2-2----2-0-|
A ||------2-2-2----2---|------2-2-2----2---|-3----3-3------3---|-3----3-3------3---|
E ||-3-----------------|-3-----------------|-------------------|-------------------|

    Am                                      G
e |------0-0------0---|------0-0------0---|------3-3------3---|------3-3------3---|
B |------1-1------1---|------1-1------1---|------0-0------0---|------0-0------0---|
G |------2-2----2-2---|------2-2----2-2---|------0-0------0---|------0-0------0---|
D |----2-2-2-2----2-2-|----2-2-2-2----2-0-|----0-0-0----0-0-0-|----0-0-0----0-0-0-|
A |-0----0-0------0---|-0----0-0------0---|------2-2-2----2---|------2-2-2----2---|
E |-------------------|-------------------|-3-----------------|-3-----------------|

Couplets 1,2 :

     G                                       C
e ||------3-3------3---|------3-3------3---|------0-0------0---|------0-0------0---|
B ||------0-0------0---|------0-0------0---|------1-1------1---|------1-1------1---|
G ||------0-0------0---|------0-0------0---|------0-0----0-0---|------0-0----0-0---|
D ||----0-0-0----0-0-0-|----0-0-0----0-0-0-|----2-2-2-2----2-2-|----2-2-2-2----2-0-|
A ||------2-2-2----2---|------2-2-2----2---|-3----3-3------3---|-3----3-3------3---|
E ||-3-----------------|-3-----------------|-------------------|-------------------|

    Am                                      G
e |------0-0------0---|------0-0------0---|------3-3------3---|------3-3------3---||
B |------1-1------1---|------1-1------1---|------0-0------0---|------0-0------0---||
G |------2-2----2-2---|------2-2----2-2---|------0-0------0---|------0-0------0---|| (x2)
D |----2-2-2-2----2-2-|----2-2-2-2----2-0-|----0-0-0----0-0-0-|----0-0-0----0-0-0-||
A |-0----0-0------0---|-0----0-0------0---|------2-2-2----2---|------2-2-2----2---||
E |-------------------|-------------------|-3-----------------|-3-----------------||

Refrain 1 :

     C                         D                          Em                   G
e ||-------8--8-----8--8-----|--------10-10----10-10----|------7-7----7-7----|------3-3----3----||
B ||-------8--8-----8--8-----|--------10-10----10-10----|------8-8----8-8----|------0-0----0----||
G ||-------9--9-----9--9-----|--------11-11----11-11----|------9-9----9-9----|------0-0----0----||
D ||-------10-10----10-10----|--------12-12----12-12--x-|----9-9-9----9-9----|------0-0----0----||
A ||----10-10-10----10-10--x-|-----12-12-12----12-12----|-7----7-7----7-7--x-|----2-2-2----2--x-||
E ||-8-----8--8-----8--8-----|-10-----10-10----10-10----|------7-7----7-7----|-3----3-3----3----||

      (x3)

    C                                                   D
e |-------8--8-----8--8-----|-------8--8-----8--8-----|--------10-10----10-10----|
B |-------8--8-----8--8-----|-------8--8-----8--8-----|--------10-10----10-10----|
G |-------9--9-----9--9-----|-------9--9-----9--9-----|--------11-11----11-11----|
D |-------10-10----10-10----|-------10-10----10-10----|--------12-12----12-12--x-|
A |----10-10-10----10-10--x-|----10-10-10----10-10--x-|-----12-12-12----12-12----|
E |-8-----8--8-----8--8-----|-8-----8--8-----8--8-----|-10-----10-10----10-10----|

    D                          G
e |--------10-10----10-10----|------0-0------0---|------0-0------0---|
B |--------10-10----10-10----|------1-1------1---|------1-1------1---|
G |--------11-11----11-11----|------2-2----2-2---|------2-2----2-2---|
D |--------12-12----12-12--x-|----2-2-2-2----2-2-|----2-2-2-2----2-2-|
A |-----12-12-12----12-12----|-0----0-0------0---|-0----0-0------0---|
E |-10-----10-10----10-10----|-------------------|-------------------|

Refrain 2 :

     C                         D                          Em                   G
e ||-------8--8-----8--8-----|--------10-10----10-10----|------7-7----7-7----|------3-3----3----||
B ||-------8--8-----8--8-----|--------10-10----10-10----|------8-8----8-8----|------0-0----0----||
G ||-------9--9-----9--9-----|--------11-11----11-11----|------9-9----9-9----|------0-0----0----||
D ||-------10-10----10-10----|--------12-12----12-12--x-|----9-9-9----9-9----|------0-0----0----||
A ||----10-10-10----10-10--x-|-----12-12-12----12-12----|-7----7-7----7-7--x-|----2-2-2----2--x-||
E ||-8-----8--8-----8--8-----|-10-----10-10----10-10----|------7-7----7-7----|-3----3-3----3----||

      (x3)

    C                                                   D
e |-------8--8-----8--8-----|-------8--8-----8--8-----|--------10-10----10-10----|
B |-------8--8-----8--8-----|-------8--8-----8--8-----|--------10-10----10-10----|
G |-------9--9-----9--9-----|-------9--9-----9--9-----|--------11-11----11-11----|
D |-------10-10----10-10----|-------10-10----10-10----|--------12-12----12-12--x-|
A |----10-10-10----10-10--x-|----10-10-10----10-10--x-|-----12-12-12----12-12----|
E |-8-----8--8-----8--8-----|-8-----8--8-----8--8-----|-10-----10-10----10-10----|

    D
e |--------10-10----10-10----|
B |--------10-10----10-10----|
G |--------11-11----11-11----|
D |--------12-12----12-12--x-|
A |-----12-12-12----12-12----|
E |-10-----10-10----10-10----|



    G                                       C
e |------3-3------3---|------3-3------3---|------0-0------0---|------0-0------0---|
B |------0-0------0---|------0-0------0---|------1-1------1---|------1-1------1---|
G |------0-0------0---|------0-0------0---|------0-0----0-0---|------0-0----0-0---|
D |----0-0-0----0-0-0-|----0-0-0----0-0-0-|----2-2-2-2----2-2-|----2-2-2-2----2-0-|
A |------2-2-2----2---|------2-2-2----2---|-3----3-3------3---|-3----3-3------3---|
E |-3-----------------|-3-----------------|-------------------|-------------------|

    Am                                      G
e |------0-0------0---|------0-0------0---|------3-3------3---|------3-3------3---|
B |------1-1------1---|------1-1------1---|------0-0------0---|------0-0------0---|
G |------2-2----2-2---|------2-2----2-2---|------0-0------0---|------0-0------0---|
D |----2-2-2-2----2-2-|----2-2-2-2----2-0-|----0-0-0----0-0-0-|----0-0-0----0-0-0-|
A |-0----0-0------0---|-0----0-0------0---|------2-2-2----2---|------2-2-2----2---|
E |-------------------|-------------------|-3-----------------|-3-----------------|

Dernier couplet :

    G                         C                         Am
e |------3-----|------------|------0-----|------------|------0-----|------------|
B |-----0------|------------|-----1------|------------|-----1------|------------|
G |----0-------|------------|----0-------|------------|----2-------|------------|
D |---0--------|------------|---2--------|------------|---2--------|------------|
A |--2---------|------------|--3---------|------------|--0---------|------------|
E |-3----------|------------|-0----------|------------|-0----------|------------|

    G
e |------3-3------3---|------3-3------3---|
B |------0-0------0---|------0-0------0---|
G |------0-0------0---|------0-0------0---|
D |----0-0-0----0-0-0-|----0-0-0----0-0-0-|
A |------2-2-2----2---|------2-2-2----2---|
E |-3-----------------|-3-----------------|

    G                                       C
e |------3-3------3---|------3-3------3---|------0-0------0---|------0-0------0---|
B |------0-0------0---|------0-0------0---|------1-1------1---|------1-1------1---|
G |------0-0------0---|------0-0------0---|------0-0----0-0---|------0-0----0-0---|
D |----0-0-0----0-0-0-|----0-0-0----0-0-0-|----2-2-2-2----2-2-|----2-2-2-2----2-0-|
A |------2-2-2----2---|------2-2-2----2---|-3----3-3------3---|-3----3-3------3---|
E |-3-----------------|-3-----------------|-------------------|-------------------|

    Am                                      G
e |------0-0------0---|------0-0------0---|------3-3------3---|------3-3------3---|
B |------1-1------1---|------1-1------1---|------0-0------0---|------0-0------0---|
G |------2-2----2-2---|------2-2----2-2---|------0-0------0---|------0-0------0---|
D |----2-2-2-2----2-2-|----2-2-2-2----2-0-|----0-0-0----0-0-0-|----0-0-0----0-0-0-|
A |-0----0-0------0---|-0----0-0------0---|------2-2-2----2---|------2-2-2----2---|
E |-------------------|-------------------|-3-----------------|-3-----------------|

Derniers refrains et fin :

    C                         D                          Em                   G
e |-------8--8-----8--8-----|--------10-10----10-10----|------7-7----7-7----|------3-3----3----|
B |-------8--8-----8--8-----|--------10-10----10-10----|------8-8----8-8----|------0-0----0----|
G |-------9--9-----9--9-----|--------11-11----11-11----|------9-9----9-9----|------0-0----0----|
D |-------10-10----10-10----|--------12-12----12-12--x-|----9-9-9----9-9----|------0-0----0----|
A |----10-10-10----10-10--x-|-----12-12-12----12-12----|-7----7-7----7-7--x-|----2-2-2----2--x-|
E |-8-----8--8-----8--8-----|-10-----10-10----10-10----|------7-7----7-7----|-3----3-3----3----|

    C                         D                          Em                   G
e |-------8--8-----8--8-----|--------10-10----10-10----|-7------------------|------------------|
B |-------8--8-----8--8-----|--------10-10----10-10----|-8------------------|------------------|
G |-------9--9-----9--9-----|--------11-11----11-11----|-9------------------|------------------|
D |-------10-10----10-10----|--------12-12----12-12--x-|-9------------------|------------------|
A |----10-10-10----10-10--x-|-----12-12-12----12-12----|-7------------------|------------------|
E |-8-----8--8-----8--8-----|-10-----10-10----10-10----|-7------------------|------------------|

    C                         D                          Em                   G
e |-------8--8-----8--8-----|--------10-10----10-10----|------7-7----7-7----|------3-3----3----|
B |-------8--8-----8--8-----|--------10-10----10-10----|------8-8----8-8----|------0-0----0----|
G |-------9--9-----9--9-----|--------11-11----11-11----|------9-9----9-9----|------0-0----0----|
D |-------10-10----10-10----|--------12-12----12-12--x-|----9-9-9----9-9----|------0-0----0----|
A |----10-10-10----10-10--x-|-----12-12-12----12-12----|-7----7-7----7-7--x-|----2-2-2----2--x-|
E |-8-----8--8-----8--8-----|-10-----10-10----10-10----|------7-7----7-7----|-3----3-3----3----|

    C                                                   D
e |-------8--8-----8--8-----|-------8--8-----8--8-----|--------10-10----10-10----|
B |-------8--8-----8--8-----|-------8--8-----8--8-----|--------10-10----10-10----|
G |-------9--9-----9--9-----|-------9--9-----9--9-----|--------11-11----11-11----|
D |-------10-10----10-10----|-------10-10----10-10----|--------12-12----12-12--x-|
A |----10-10-10----10-10--x-|----10-10-10----10-10--x-|-----12-12-12----12-12----|
E |-8-----8--8-----8--8-----|-8-----8--8-----8--8-----|-10-----10-10----10-10----|

    D
e |--------10-10----10-10----|
B |--------10-10----10-10----|
G |--------11-11----11-11----|
D |--------12-12----12-12--x-|
A |-----12-12-12----12-12----|
E |-10-----10-10----10-10----|

     C                         D                          Em                   G
e ||-------8--8-----8--8-----|--------10-10----10-10----|------7-7----7-7----|------3-3----3----||
B ||-------8--8-----8--8-----|--------10-10----10-10----|------8-8----8-8----|------0-0----0----||
G ||-------9--9-----9--9-----|--------11-11----11-11----|------9-9----9-9----|------0-0----0----||
D ||-------10-10----10-10----|--------12-12----12-12--x-|----9-9-9----9-9----|------0-0----0----||
A ||----10-10-10----10-10--x-|-----12-12-12----12-12----|-7----7-7----7-7--x-|----2-2-2----2--x-||
E ||-8-----8--8-----8--8-----|-10-----10-10----10-10----|------7-7----7-7----|-3----3-3----3----||

      (x3)

    C                                                   D
e |-------8--8-----8--8-----|-------8--8-----8--8-----|--------10-10----10-10----|
B |-------8--8-----8--8-----|-------8--8-----8--8-----|--------10-10----10-10----|
G |-------9--9-----9--9-----|-------9--9-----9--9-----|--------11-11----11-11----|
D |-------10-10----10-10----|-------10-10----10-10----|--------12-12----12-12--x-|
A |----10-10-10----10-10--x-|----10-10-10----10-10--x-|-----12-12-12----12-12----|
E |-8-----8--8-----8--8-----|-8-----8--8-----8--8-----|-10-----10-10----10-10----|

    D
e |--------10-10----10-10----|
B |--------10-10----10-10----|
G |--------11-11----11-11----|
D |--------12-12----12-12--x-|
A |-----12-12-12----12-12----|
E |-10-----10-10----10-10----|



    G                                       C
e |------3-3------3---|------3-3------3---|------0-0------0---|------0-0------0---|
B |------0-0------0---|------0-0------0---|------1-1------1---|------1-1------1---|
G |------0-0------0---|------0-0------0---|------0-0----0-0---|------0-0----0-0---|
D |----0-0-0----0-0-0-|----0-0-0----0-0-0-|----2-2-2-2----2-2-|----2-2-2-2----2-0-|
A |------2-2-2----2---|------2-2-2----2---|-3----3-3------3---|-3----3-3------3---|
E |-3-----------------|-3-----------------|-------------------|-------------------|

    Am                                      G
e |------0-0------0---|------0-0------0---|----------3--------|------------------||
B |------1-1------1---|------1-1------1---|---------0---------|------------------||
G |------2-2----2-2---|------2-2----2-2---|--------0----------|------------------||
D |----2-2-2-2----2-2-|----2-2-2-2----2-0-|----0--0-----------|------------------||
A |-0----0-0------0---|-0----0-0------0---|------2------------|------------------||
E |-------------------|-------------------|-3-----------------|------------------||



Paroles

On m'a prévu l'état du trafic sans rire
Pour l'arrivée des courses hippiques je peux lire
Pour tout savoir le Paris-Turf
On m'a prévu le temps qu'il va faire sans blagues
Et sur le bord de mer le creux des vagues
Tant qu'c'est pas moi qui fait du surf !

Je n'sais vous mais moi on me prévoit tout et n'importe quoi
Si ça n'vaut pas le coup ou si ça va de soi, si ça va de soi, si ça va de soi
Je n'sais vous mais moi on me prévoit tout et n'importe quoi
Si ça n'vaut pas le coup ou si j'ai le choix
A chaque fois

On m'a prévu un gros tirage d'enfer
Une deuxième chance au grattage et joker
Si j'avais pas toujours perdu
On m'a prévu des jours fériés merci
Défilé du 14 juillet aussi
Tant que c'est pas dans ma rue

Je n'sais vous mais moi on me prévoit tout et n'importe quoi
Si ça n'vaut pas le coup ou si ça va de soi, si ça va de soi, si ça va de soi
Je n'sais vous mais moi on me prévoit tout et n'importe quoi
Si ça n'vaut pas le coup ou si j'ai le choix
A chaque fois

On m'a prévu tout un programme, c'est cool
Des émissions en prime-time ça roule
Si m'achète une télé un jour
On m'a prévu des sponsors partout, trop fort !
Des matchs et tout le temps c'est fou le sport
Tant que c'est pas moi qui court

Je n'sais vous mais moi on me prévoit tout et n'importe quoi
Si ça n'vaut pas le coup ou si ça va de soi, si ça va de soi, si ça va de soi
Je n'sais vous mais moi on me prévoit tout et n'importe quoi
Si ça n'vaut pas le coup ou si j'ai le choix
A chaque fois

Je n'sais vous mais moi on me prévoit tout et n'importe quoi
Si ça n'vaut pas le coup ou si ça va de soi, si ça va de soi, si ça va de soi
Je n'sais vous mais moi on me prévoit tout et n'importe quoi
Si ça n'vaut pas le coup ou si j'ai le choix
A chaque fois