Tabsvolo.net - Tablature : Couples


 Les tablatures : 68

Chanson française (2017)

Sans rire (2013)

C'est pas tout ça... (2010)

En attendant (2009)

Bref... Septembre 2008

  • Ma p'tite chanson
  • J'espère...
  • Bref

Jours heureux (2007)

Blancs Manteaux à Volo (2006)

Bien Zarbos (2004)

Tablature : Couples

Télécharger la version imprimable

Intro :
   G#/Bm  Bm   G#/Bm  Em     A     ...
e ||----|-----------|-----------||-----------|-----------|-----------|-----------|
B ||--3-|----3----3-|----8----5-||----3----3-|----3----3-|----3----3-|----8----5-|
G ||--4-|----4----4-|----9----6-||----4----4-|----4----4-|----4----4-|----9----6-|
D ||----|-----------|-----------||-----------|-----------|-----------|-----------|
A ||----|-2---------|-7---------||-2---------|-2---------|-2---------|-7---------|
E ||-4--|--------4--|--------5--||--------4--|--------4--|--------4--|--------5--|


Couplet 1,2,3 :
e ||-----------|-----------|-----------|-----------||
B ||----3----3-|----3----3-|----3----3-|----8----5-||
G ||----4----4-|----4----4-|----4----4-|----9----6-|| (x2)
D ||-----------|-----------|-----------|-----------||
A ||-2---------|-2---------|-2---------|-7---------||
E ||--------4--|--------4--|--------4--|--------5--||

    G       Em   A       Bm   G       Em   A       A    F#
e |------------|------------|------------|------------|-2-2-2-2-2-2-|
B |----3-----8-|----5-----3-|----3-----8-|----5-----5-|-2-2-2-2-2-2-|
G |----4-----9-|----6-----4-|----4-----9-|----6-----6-|-3-3-3-3-3-3-|
D |------------|------------|------------|------------|-4-4-4-4-4-4-|
A |---------7--|---------2--|---------7--|------------|-4-4-4-4-4-4-|
E |-3----------|-5----------|-3----------|-5-------5--|-2-2-2-2-2-2-|


Refrain 1,2 :
e |-----------|-----------|-----------|-----------|
B |-----------|-----------|-----------|----8----5-|
G |-----------|-----------|-----------|----9----6-|
D |-----------|-----------|-----------|-----------|
A |-----------|-----------|-----------|-7---------|
E |-----------|-----------|-----------|--------5--|
     J't'aime, j't'aime...             Désolé si je m'endors...

e ||-----------|-----------|-----------|-----------|
B ||----3----3-|----3----3-|----3----3-|----8----5-|
G ||----4----4-|----4----4-|----4----4-|----9----6-|
D ||-----------|-----------|-----------|-----------|
A ||-2---------|-2---------|-2---------|-7---------|
E ||--------4--|--------4--|--------4--|--------5--|



Refrain 3 :
e |-2---------|-----------|-----------|-----------|
B |-3---------|-----------|-----------|-----------|
G |-4---------|-----------|-----------|-----------|
D |-4---------|-----------|-----------|-----------|
A |-2---------|-----------|-----------|-----------|
E |-2---------|-----------|-----------|-----------|
     J't'aime, j't'aime...             Désolé si je m'endors...

e ||-----------|-----------|-----------|-----------||
B ||----3----3-|----3----3-|----3----3-|----8----5-||
G ||----4----4-|----4----4-|----4----4-|----9----6-|| (x5)
D ||-----------|-----------|-----------|-----------||
A ||-2---------|-2---------|-2---------|-7---------||
E ||--------4--|--------4--|--------4--|--------5--||

Les 2 dernières fois, partir en gratte...



Couplet 4 :
e |-----------|-----------|-----------|-----------|
B |-----------|-----------|----3----3-|----8----5-|
G |-----------|-----------|----4----4-|----9----6-|
D |-----------|-----------|-----------|-----------|
A |-----------|-----------|-2---------|-7---------|
E |-----------|-----------|--------4--|--------5--|

e |-----------|-----------|-----------|-----------|
B |----3----3-|----3----3-|----3----3-|----8----5-|
G |----4----4-|----4----4-|----4----4-|----9----6-|
D |-----------|-----------|-----------|-----------|
A |-2---------|-2---------|-2---------|-7---------|
E |--------4--|--------4--|--------4--|--------5--|

    G       Em   A       Bm   G       Em   A       A    F#
e |------------|------------|------------|------------|-2-2-2-2-2-2-|
B |----3-----8-|----5-----3-|----3-----8-|----5-----5-|-2-2-2-2-2-2-|
G |----4-----9-|----6-----4-|----4-----9-|----6-----6-|-3-3-3-3-3-3-|
D |------------|------------|------------|------------|-4-4-4-4-4-4-|
A |---------7--|---------2--|---------7--|------------|-4-4-4-4-4-4-|
E |-3----------|-5----------|-3----------|-5-------5--|-2-2-2-2-2-2-|


e ||-----------|-----------|-----------|-----------||
B ||----3----3-|----3----3-|----3----3-|----8----5-||
G ||----4----4-|----4----4-|----4----4-|----9----6-|| (x3)
D ||-----------|-----------|-----------|-----------||
A ||-2---------|-2---------|-2---------|-7---------||
E ||--------4--|--------4--|--------4--|--------5--||
      Je t'aime encore...

Terminer en laissant sonner le La...




Paroles


A tous les couples en sursis devant leurs séries
Qui survivent aussi grâce aux tueurs en série
Aux acteurs qui sont flics mais à l’américaine
L’enquête est scientifique et c’est sur toutes les chaines
La blonde est célibataire le black est sympathique
Le chef est quinquagénaire et le beau brun hispanique

J’t’aime j’t’aime j’t’aime j’t’aime j’t’aime j’t’aime j’t’aime j’t’aime
Je t’aime encore
Désolé si je m’endors

A tous les couples en sursis devant leurs séries
Qui résistent aussi jusqu’au bout de la nuit
Il faut qu’on tienne le coup ça peut pas s’arrêter
Pour qui ? Pour quoi ? Pour nous ? Ou pour le DVD ?
Dix ans de comédies de doublages en moins vrai
Crises de rires sans amis une vie d’couple en coffret

J’t’aime j’t’aime j’t’aime j’t’aime j’t’aime j’t’aime j’t’aime j’t’aime
Je t’aime encore
Désolé si je m’endors

A tous les couples en sursis devant leurs séries
Qui s’redécouvrent aussi si la série se finit
Mais qu’est-ce qu’on va faire ? Qu’est qu’on va dev’nir ?
Comme on a plus rien pour se taire qu’est-ce qu’on va pouvoir se dire ?
Si y a plus de saisons je pars avec les gosses
On vendra la maison j’m’occup’rai du divorce

J’t’aime j’t’aime j’t’aime j’t’aime j’t’aime j’t’aime j’t’aime j’t’aime
Je t’aime encore
Désolé si je m’endors
J’t’aime j’t’aime j’t’aime j’t’aime j’t’aime j’t’aime j’t’aime j’t’aime
Je t’aime encore
Désolé si je m’endors
J’t’aime j’t’aime
J’t’aime je t’aime je t’aime j’t’aime j’t’aime j’t’aime
J’t’aime encore
Désolé si je m’endors

A tous les couples en sursis devant leurs séries
Qui s’réveillent aussi au milieu de la nuit
J’crois qu’j’ai fais un cauch’mar je monte me recoucher
Je préfère le plumard j’te laisse le canapé
Demain faudrait qu’on cause pourquoi pas demain soir
Sauf si on a autre chose quelque chose d’autre à voir

Je t’aime encore désolé si je m’endors
Je t’aime encore désolé si je m’endors
Je t’aime encore désolé si je m’endors