Tabsvolo.net - Tablature : Comme tout le monde


 Les tablatures : 68

Chanson française (2017)

Sans rire (2013)

C'est pas tout ça... (2010)

En attendant (2009)

Bref... Septembre 2008

  • Ma p'tite chanson
  • J'espère...
  • Bref

Jours heureux (2007)

Blancs Manteaux à Volo (2006)

Bien Zarbos (2004)

Tablature : Comme tout le monde

Rev. 02 | 17-06-2010

Télécharger la version imprimable

Un jour... un extrait


Intro :

     Fm
e ||------------------||
B ||------------------||
G ||------------------|| <--- (en boucle avant de lancer le morceau...)
D ||-10---10-10-10-10-||
A ||-8----8--8--8--8--||
E ||-8----8--8--8--8--||

e ||---------------------------------|--------------------------------|
B ||---------------------------------|--------------------------------|
G ||---------------------------------|--------------------------------|
D ||-8----10-10-10-10-11-10-10-10-8--|-8----------------------------8-|
A ||-8----8--8--8--8--8--8--8--8--8--|-8----10-10-10-10-11-10-10-10-8-|
E ||-8----8--8--8--8--8--8--8--8--8--|-8----8--8--8--8--8--8--8--8--9-|

e |--------------------------------|-------------------------||
B |--------------------------------|-------------------------||
G |--------------------------------|-------------------------|| (x2)
D |-8----10-10-10-10-11-10-10-10-6-|-6----8-8-8-8-10-8-8-8-8-||
A |-8----8--8--8--8--8--8--8--8--6-|-6----6-6-6-6-6--6-6-6-8-||
E |-9----9--9--9--9--9--9--9--9--6-|-6----6-6-6-6-6--6-6-6-8-||

Couplet :

e ||---------------------------------|--------------------------------|
B ||---------------------------------|--------------------------------|
G ||---------------------------------|--------------------------------|
D ||-8----10-10-10-10-11-10-10-10-8--|-8----------------------------8-|
A ||-8----8--8--8--8--8--8--8--8--8--|-8----10-10-10-10-11-10-10-10-8-|
E ||-8----8--8--8--8--8--8--8--8--8--|-8----8--8--8--8--8--8--8--8--9-|

e |--------------------------------|-------------------------||
B |--------------------------------|-------------------------||
G |--------------------------------|-------------------------|| (x4)
D |-8----10-10-10-10-11-10-10-10-6-|-6----8-8-8-8-10-8-8-8-8-||
A |-8----8--8--8--8--8--8--8--8--6-|-6----6-6-6-6-6--6-6-6-8-||
E |-9----9--9--9--9--9--9--9--9--6-|-6----6-6-6-6-6--6-6-6-8-||

Refrain : (temps forts)

       Fm                            Cm
e |--------------|--------------|--------------|--------------|
B |--------------|--------------|--------------|--------------|
G |--------------|--------------|--------------|--------------|
D |----3----3----|----3----3----|----5----5----|----5----5----|
A |----3----3----|----3----3----|----3----3----|----3----3----|
E |----1----1----|----1----1----|----3----3----|----3----3----|

       C5#                           D5#          C
e |--------------|--------------|--------------|--------------|
B |--------------|--------------|--------------|--------------|
G |--------------|--------------|--------------|--------------|
D |----6----6----|----6----6----|----8----8----|--10----------|
A |----4----4----|----4----4----|----6----6----|--8-----------|
E |----4----4----|----4----4----|----6----6----|--8-----------|

Reprendre au couplet et refrain jusqu'à la fin de la chanson.

Fin :



e |---------------------------------|--------------------------------|
B |---------------------------------|--------------------------------|
G |---------------------------------|--------------------------------|
D |-8----10-10-10-10-11-10-10-10-8--|-8------------------------------|
A |-8----8--8--8--8--8--8--8--8--8--|-8----10-10-10-10-11-10---------|
E |-8----8--8--8--8--8--8--8--8--8--|-8----8--8--8--8--8-------------|

e |---------------------------------|--------------------------------|
B |---------------------------------|--------------------------------|
G |---------------------------------|--------------------------------|
D |-8----10-10-10-10-11-10-10-10-8--|-8----------------------------8-|
A |-8----8--8--8--8--8--8--8--8--8--|-8----10-10-10-10-11-10-10-10-8-|
E |-8----8--8--8--8--8--8--8--8--8--|-8----8--8--8--8--8--8--8--8--9-|

e |---------------------------------|--------------------------------|
B |---------------------------------|--------------------------------|
G |---------------------------------|--------------------------------|
D |-8----10-10-10-10-11-10-10-10-8--|-8------------------------------|
A |-8----8--8--8--8--8--8--8--8--8--|-8----10-10-10-10-11-10---------|
E |-8----8--8--8--8--8--8--8--8--8--|-8----8--8--8--8--8-------------|

e |--------------------------------|--------------------------------||
B |--------------------------------|--------------------------------||
G |--------------------------------|--------------------------------||
D |-8------------------------------|-10-----------------------------||
A |-8----10-10-10-10-11-10---------|-8------------------------------||
E |-8----8--8--8--8--8-------------|-8------------------------------||

Paroles


J’me sens crade
J’me trouve sale
J’me sens malade
J’ressemble à que dalle
J’me sens triste
J’me trouve dégueulasse
J’me traite d'égoïste
J’me trouve moche dans la glace

La p’tite angoisse c’est la déprime qui va qui vient
Quand on m’demande si ça va
Je suis comme tout l’monde
Je réponds "bien"

Des drones qui survolent
Des villages en flammes
Des puits de pétrole
Des écoles qui crament
Des camps d’réfugiés dans l’désert
Des sans-papiers dans des charters
Des massacres, des famines,
Des charniers, des champs de mines

La p’tite angoisse c’est la déprime qui va qui vient
Quand on m’demande si ça va
Je suis comme tout l’monde
Je réponds "bien"

La forêt, la campagne
L'océan, la montagne
Un feu de cheminée
Une p’tite clope, un café
Une prom’nade à vélo
Un couple qui s'embrasse
Un apéro en terrasse
Et du bon temps qui passe
La musique, la danse
La famille et les potes
Les vacances, les filles
Une BD, une belote
Un chat qui s'étire
Un coucher de soleil
Ma nana qui m’fait rire
Mon gamin qui m’réveille

La p’tite angoisse c’est la déprime qui va qui vient
Quand on m’demande si ça va
Je suis comme tout l’monde
Je réponds

La p’tite angoisse c’est la déprime qui va qui vient
Quand on m’demande si ça va
Je suis comme tout l’monde
Je réponds