Tabsvolo.net - Tablature : Obligé


 Les tablatures : 68

Chanson française (2017)

Sans rire (2013)

C'est pas tout ça... (2010)

En attendant (2009)

Bref... Septembre 2008

  • Ma p'tite chanson
  • J'espère...
  • Bref

Jours heureux (2007)

Blancs Manteaux à Volo (2006)

Bien Zarbos (2004)

Tablature : Obligé

22-11-2014

Partager cette tablature

Télécharger la version imprimable 


Ecouter un extrait composé de différentes parties de la tablature :



Conseil : Bien écouter la musique pour le rythme

Intro :
     Gm                 Cm             Bb             F              Cm
e ||------------------|--------------|--------------|--------------|--------------|
B ||----11---------11-|---4--------4-|---6--------6-|---1--------1-|---4--------4-|
G ||----12---------12-|---5--------5-|---7--------7-|---2--------2-|---5--------5-|
D ||------------12----|----------5---|--------------|--------------|----------5---|
A ||-10---------------|-3------------|----------8---|----------3---|-3------------|
E ||------------------|--------------|-6------------|-1------------|--------------|

    F              Dm             Cm             F              F
e |--------------|--------------|--------------|--------------|--------------||
B |---1--------1-|---6--------6-|---4--------4-|---1--------1-|---1--------1-||
G |---2--------2-|---7--------7-|---5--------5-|---2--------2-|---2--------2-||
D |--------------|----------7---|----------5---|--------------|-3------------||
A |----------3---|-5------------|-3------------|----------3---|----------3---||
E |-1------------|--------------|--------------|-1------------|--------------||


Répéter en boucle tout le long de la chanson...

Paroles


Je suis paumé dans un cim'tière
Je marche au milieu des tombes et
J'lis les noms sur les pierres...
Obligé
J'me souviens

On s'est connu pendant l'enfance
On s'est perdu de vue dès l'adolescence
C'que t'es dev'nu
J'en sais rien

Je suis paumé dans un cim'tière
Je marche au milieu des tombes et
J'lis les noms sur les pierres...
Obligé
J'me souviens

Ta bouille de gamin et ton grand sourire
Ta tronche de super copain quand fallait s'enfuir
Courir pour courir
C'était bien

Je suis paumé dans un cim'tière
Je marche au milieu des tombes et
J'lis les noms sur les pierres...
Obligé
J'm'en souviens

Tous ces moments de joie, ces quelques disputes
Notre cabane en bois, nos passes, nos tirs, nos buts
C'était toi
Le gardien

Je suis paumé dans un cim'tière
Je marche au milieu des tombes et
J'lis les noms sur les pierres...
Obligé
J'me souviens

Quand on était paumés dans le cim'tière
Que t'étais tombé à genoux, les mains en prière
Pour rigoler
Ca me revient