Tabsvolo.net - Tablature : Bout de trottoir (Acoustique)


 Les tablatures : 76

17 ans (En acoustique) (2022)

Avec son frère (2020)

Chanson française (2017)

Sans rire (2013)

C'est pas tout ça... (2010)

En attendant (2009)

Bref... Septembre 2008

  • Ma p'tite chanson
  • J'espère...
  • Bref

Jours heureux (2007)

Blancs Manteaux à Volo (2006)

Bien Zarbos (2004)

Tablature : Bout de trottoir (Acoustique)

07-03-2022

Partager cette tablature

Télécharger la version imprimable 


Ecouter un extrait composé de différentes parties de la tablature :



Légende :
||------|| (xN) : Jouer N fois la partie entre les ||
                  t : taper sur les cordes avec la main droite (les ongles)

Intro :

     Em
e ||---------t-------|---------t-------|---------t-------|---------t------|
B ||-----8---t----8--|-----8---t----8--|-----8---t----8--|-----8---t----8-|
G ||-----9---t----9--|-----9---t----9--|-----9---t----9--|-----9---t----9-|
D ||---------t--9----|---------t--9----|---------t--9----|---------t--9---|
A ||-7-------t-------|-7-------t-------|-7-------t-------|-7-------t------|
E ||---------t-------|---------t-------|---------t-------|---------t------|


Couplets 1,2,3 :

     Em                                  G
e ||---------t-------|---------t-------|---------t-------|---------t-------|
B ||-----8---t----8--|-----8---t----8--|-----3---t----3--|-----3---t----3--|
G ||-----9---t----9--|-----9---t----9--|-----4---t----4--|-----4---t----4--|
D ||---------t--9----|---------t--9----|---------t-------|-5-------t-------|
A ||-7-------t-------|-7-------t-------|---------t--5----|---------t--5----|
E ||---------t-------|---------t-------|-3-------t-------|---------t-------|

    D                                           C
e |-----------t---------|-----------t---------|---------t--------|----------t--------||
B |------10---t-----10--|------10---t-----10--|-----8---t-----8--|------8---t-----8--||
G |------11---t-----11--|------11---t-----11--|-----9---t-----9--|------9---t-----9--|| (x2)
D |-----------t---------|-12--------t---------|---------t--------|-10-------t--------||
A |-----------t--12-----|-----------t--12-----|---------t--10----|----------t--10----||
E |-10--------t---------|-----------t---------|-8-------t--------|----------t--------||

Refrains 1,2,3 :

    Am                                  Em
e |---------t-------|---------t-------|---------t-------|---------t-------|
B |-----1---t----1--|-----1---t----1--|-----0---t----0--|-----0---t----0--|
G |-----2---t----2--|-----2---t----2--|-----0---t----0--|-----0---t----0--|
D |---------t--2----|---------t--2----|---------t-------|-2-------t-------|
A |-0-------t-------|-0-------t-------|---------t--2----|---------t--2----|
E |---------t-------|---------t-------|-0-------t-------|---------t-------|

    G                                   D
e |---------t-------|---------t-------|-----------t---------|-----------t---------|
B |-----3---t----3--|-----3---t----3--|------10---t-----10--|------10---t-----10--|
G |-----4---t----4--|-----4---t----4--|------11---t-----11--|------11---t-----11--|
D |---------t-------|-5-------t-------|-----------t---------|-12--------t---------|
A |---------t--5----|---------t--5----|-----------t--12-----|-----------t--12-----|
E |-3-------t-------|---------t-------|-10--------t---------|-----------t---------|

    Am                                   C
e |---------t-------|---------t-------|---------t------|----------t--------|
B |-----1---t----1--|-----1---t----1--|-----8---t------|------8---t-----8--|
G |-----2---t----2--|-----2---t----2--|-----9---t------|------9---t-----9--|
D |---------t--2----|---------t--2----|---------t------|-10-------t--------|
A |-0-------t-------|-0-------t-------|---------t--10--|----------t--10----|
E |---------t-------|---------t-------|-8-------t------|----------t--------|

    Em
e |---------t-------|---------t-------|---------t-------|---------t------|
B |-----8---t----8--|-----8---t----8--|-----8---t----8--|-----8---t----8-|
G |-----9---t----9--|-----9---t----9--|-----9---t----9--|-----9---t----9-|
D |---------t--9----|---------t--9----|---------t--9----|---------t--9---|
A |-7-------t-------|-7-------t-------|-7-------t-------|-7-------t------|
E |---------t-------|---------t-------|---------t-------|---------t------|

{ Couplet 2 }

{ Refrain 2 }

{ Couplet 3 }

{ Refrain 3 }


Pont :

     Em                                 G
e ||---------t-------|---------t------|---------t-------|---------t-------|
B ||-----0---t----0--|-----0---t----0-|-----3---t----3--|-----3---t----3--|
G ||-----0---t----0--|-----0---t----0-|-----4---t----4--|-----4---t----4--|
D ||---------t-------|-2-------t------|---------t-------|-5-------t-------|
A ||---------t--2----|---------t--2---|---------t--5----|---------t--5----|
E ||-0-------t-------|---------t------|-3-------t-------|---------t-------|

    D                                           C
e |-----------t---------|-----------t---------|---------t--------|----------t--------||
B |------10---t-----10--|------10---t-----10--|-----8---t-----8--|------8---t-----8--||
G |------11---t-----11--|------11---t-----11--|-----9---t-----9--|------9---t-----9--|| (x4)
D |-----------t---------|-12--------t---------|---------t--------|-10-------t--------||
A |-----------t--12-----|-----------t--12-----|---------t--10----|----------t--10----||
E |-10--------t---------|-----------t---------|-8-------t--------|----------t--------||

Couplet 4 :

    Em                                     G
e |---------t---------t-|---------t------|---------t---------t-|---------t---------t-|
B |----8----t----8----t-|----8----t----8-|----3----t----3----t-|----3----t----3----t-|
G |----9----t----9----t-|----9----t----9-|----4----t----4----t-|----4----t----4----t-|
D |----9----t----9----t-|----9----t----9-|----5----t----5----t-|----5----t----5----t-|
A |----7----t----7----t-|----7----t----7-|---------t---------t-|---------t---------t-|
E |---------t---------t-|---------t------|----3----t----3----t-|----3----t----3----t-|

    D                                               C
e |----------t----------t-|----------t----------t-|----------t---------t-|----------t----------t-|
B |----10----t----10----t-|----10----t----10----t-|----8-----t----8----t-|----8-----t----8-----t-|
G |----11----t----11----t-|----11----t----11----t-|----9-----t----9----t-|----9-----t----9-----t-|
D |----12----t----12----t-|----12----t----12----t-|----10----t----10---t-|----10----t----10----t-|
A |----------t----------t-|----------t----------t-|----------t---------t-|----------t----------t-|
E |----10----t----10----t-|----10----t----10----t-|----8-----t----8----t-|----8-----t----8-----t-|

    Em                                          G
e |---------------------|---------------------|---------t-------|---------t-------|
B |---------------------|---------------8-----|-----3---t----3--|-----3---t----3--|
G |---------------------|---------------9-----|-----4---t----4--|-----4---t----4--|
D |---------------------|---------------------|---------t-------|-5-------t-------|
A |---------------------|------------7--------|---------t--5----|---------t--5----|
E |---------------------|---------------------|-3-------t-------|---------t-------|

    D                                           C
e |-----------t---------|-----------t---------|---------t--------|----------t--------|
B |------10---t-----10--|------10---t-----10--|-----8---t-----8--|------8---t-----8--|
G |------11---t-----11--|------11---t-----11--|-----9---t-----9--|------9---t-----9--|
D |-----------t---------|-12--------t---------|---------t--------|-10-------t--------|
A |-----------t--12-----|-----------t--12-----|---------t--10----|----------t--10----|
E |-10--------t---------|-----------t---------|-8-------t--------|----------t--------|

{ Refrain 4 }

    Am                                  Em
e |---------t-------|---------t-------|---------t-------|---------t-------|
B |-----1---t----1--|-----1---t----1--|-----0---t----0--|-----0---t----0--|
G |-----2---t----2--|-----2---t----2--|-----0---t----0--|-----0---t----0--|
D |---------t--2----|---------t--2----|---------t-------|-2-------t-------|
A |-0-------t-------|-0-------t-------|---------t--2----|---------t--2----|
E |---------t-------|---------t-------|-0-------t-------|---------t-------|

    G                                   D
e |---------t-------|---------t-------|-----------t---------|-----------t---------|
B |-----3---t----3--|-----3---t----3--|------10---t-----10--|------10---t-----10--|
G |-----4---t----4--|-----4---t----4--|------11---t-----11--|------11---t-----11--|
D |---------t-------|-5-------t-------|-----------t---------|-12--------t---------|
A |---------t--5----|---------t--5----|-----------t--12-----|-----------t--12-----|
E |-3-------t-------|---------t-------|-10--------t---------|-----------t---------|

    Am                                  C
e |---------t-------|---------t-------|---------t------|----------t--------|
B |-----1---t----1--|-----1---t----1--|-----8---t------|------8---t-----8--|
G |-----2---t----2--|-----2---t----2--|-----9---t------|------9---t-----9--|
D |---------t--2----|---------t--2----|---------t------|-10-------t--------|
A |-0-------t-------|-0-------t-------|---------t--10--|----------t--10----|
E |---------t-------|---------t-------|-8-------t------|----------t--------|

     Em                                  C
e ||---------t-------|---------t-------|---------t------|----------t--------||
B ||-----8---t----8--|-----8---t----8--|-----8---t------|------8---t-----8--||
G ||-----9---t----9--|-----9---t----9--|-----9---t------|------9---t-----9--|| (x2)
D ||---------t--9----|---------t--9----|---------t------|-10-------t--------||
A ||-7-------t-------|-7-------t-------|---------t--10--|----------t--10----||
E ||---------t-------|---------t-------|-8-------t------|----------t--------||

Fin :

    Em                                  C
e |---------t-------|---------t-------|---------t------|----------t--------|
B |-----8---t----8--|-----8---t----8--|-----8---t------|------8---t-----8--|
G |-----9---t----9--|-----9---t----9--|-----9---t------|------9---t-----9--|
D |---------t--9----|---------t--9----|---------t------|-10-------t--------|
A |-7-------t-------|-7-------t-------|---------t--10--|----------t--10----|
E |---------t-------|---------t-------|-8-------t------|----------t--------|

    Em
e |----------------------||
B |----------------------||
G |----------------------||
D |----------------------||
A |-7--------------------||
E |----------------------||



Paroles

Une fois n'est pas coutume
Et si je me résume
C'est pas très beau à voir
Un jour comme aujourd'hui
Pour savoir où j'en suis
Sur mon bout de trottoir

Et des gens qui marchent
En tenant leur machine
Sans regarder devant
Et des particules fines
Dans l'air du temps

Si je me positionne
Sur tous ceux qui me questionnent
Et le poids de l'histoire
C'est sûr que c'est tendu
Et un petit peu perdu
Sur mon bout de trottoir

Et des gens qui marchent
En tenant leur machine
Sans regarder devant
Et des particules fines
Dans l'air du temps

S'il faut vivre à l'époque
D'une nouvelle guerre des blocs
Sans plus rien du grand soir
Faudrait que je me réveille
Que j'aille sauver les abeilles
Sur mon bout de trottoir

Et des gens qui marchent
En tenant leur machine
Sans regarder devant
Et des particules fines
Dans l'air du temps

Par rapport à l'urgence
De mettre en convergence
Toutes les raisons d'y croire
Se donner du courage
Sous les pavés, la plage
Sur mon bout de trottoir

Et des gens qui marchent
En tenant leur machine
Sans regarder devant
Et des particules fines
Dans l'air du temps
Dans l'air du temps