Tabsvolo.net - Tablature : T'abuses


 Les tablatures : 68

Chanson française (2017)

Sans rire (2013)

C'est pas tout ça... (2010)

En attendant (2009)

Bref... Septembre 2008

  • Ma p'tite chanson
  • J'espère...
  • Bref

Jours heureux (2007)

Blancs Manteaux à Volo (2006)

Bien Zarbos (2004)

Tablature : T'abuses

04-04-2015

Partager cette tablature

Télécharger la version imprimable




Ecouter un extrait composé de différentes parties de la tablature :



Légende :
                 x : Jouer la corde étouffée
                 = : Slide (glissé) vers le haut du manche


Intro - Premier couplet

           D#           ^       C#                    Fm                    D#                     Bm
e ||----------|---------11-11-----|----------9----------|----------8--8-------|-----------11-11------|
B ||----------|---------11-11-----|----------9----------|----------9--9-------|-----------11-11------|
G ||----------|---------12-12-----|----------10---------|----------10-10------|-----------12-12------|
D ||-x-x-x-13-|-13--13--13-13-x-9-|-9^11-11--11-------8-|-8^10-10--10-10-x-11-|-11^13-13--13-13-x-13-|
A ||-x-x-x-13-|-13--13--13-13-x-9-|-9^11-11--11-------8-|-8----8---8--8--x-11-|-11^13-13--13-13-x-13-|
E ||-x-x-x-11-|-11--11--11-11-x-9-|-9----9---9-^11-11-8-|-8----8---8--8--x-11-|-11----11--11-11-x-13-|

   Bm                 C#               Fm               G#                C
e |-----------13-13-----|------9--9------|------8--8------|--------4-4------|
B |-----------14-14-----|------9--9------|------9--9------|--------4-4------|
G |-----------15-15-----|------10-10-----|------10-10-----|--------5-5------|
D |-13^15-15--15-15-x-9-|-9^11-11-11-x-8-|-8^10-10-10-x-4-|-4^6-6--6-6-x-10-|
A |-13----13--13-13-x-9-|-9^11-11-11-x-8-|-8----8--8--x-4-|-4^6-6--6-6-x-10-|
E |-13----13--13-13-x-9-|-9----9--9--x-8-|-8----8--8--x-4-|-4---4--4-4-x-9--|

    C
e |----------------|---------8--8------|
B |----------------|---------8--8------|
G |----------------|---------9--9------|
D |-10--10--10--10-|-10--10--10-10-x-8-|
A |-10--10--10--10-|-10--10--10-10-x-8-|
E |-8---8---8---8--|-8---8---8--10-x-8-|

    Fm                D#                     Bm                    C#               G#                D#
e |----------8--8-------|-----------11-11------|-----------13-13-----|------9--9------|--------4-4------|
B |----------9--9-------|-----------11-11------|-----------14-14-----|------9--9------|--------4-4------|
G |----------10-10------|-----------12-12------|-----------15-15-----|------10-10-----|--------5-5------|
D |-8^10-10--10-10-x-11-|-11^13-13--13-13-x-13-|-13^15-15--15-15-x-9-|-9^11-11-11-x-4-|-4^6-6--6-6-x-11-|
A |-8----8---8--8--x-11-|-11^13-13--13-13-x-13-|-13----13--13-13-x-9-|-9^11-11-11-x-4-|-4^6-6--6-6-x-11-|
E |-8----8---8--8--x-11-|-11----11--11-11-x-13-|-13----13--13-13-x-9-|-9----9--9--x-4-|-4---4--4-4-x-11-|

    D#                 C#                                    G#
e |-----------11-11------|----------------|--------------------|
B |-----------11-11------|----------------|--------------------|
G |-----------12-12------|----------------|--------------------|
D |-11^13-13--13-13-x-11-|-11--11--11--11-|-11--11--11---------|
A |-11^13-13--13-13-x-11-|-11--11--11--11-|-11--11--11---------|
E |-11----11--11-11-x-9--|-9---9---9---9--|-9---9---9-^11=-x-4-|

Refrains :

    G#                         C                                   C#
e |-------4-x-x-4------4-x-x----|---------8--x-x-8---------8--x-x----|
B |-------4-x-x-4------4-x-x----|---------8--x-x-8---------8--x-x----|
G |-------5-x-x-5------5-x-x----|---------9--x-x-9---------9--x-x----|
D |-6--6--6-x-x-6-6-6--6-x-x-10-|-10--10--10-x-x-10-10-10--10-x-x-11-|
A |-6--6--6-x-x-6-6-6--6-x-x-10-|-10--10--10-x-x-10-10-10--10-x-x-11-|
E |-4--4--4-x-x-4-4-4--4-x-x-8--|-8---8---8--x-x-8--8--8---8--x-x-9--|

    C#                               D#                                   Fm
e |---------9--x-x-9---------9--x-x----|---------11-x-x-11--------11-x-x----|
B |---------9--x-x-9---------9--x-x----|---------11-x-x-11--------11-x-x----|
G |---------10-x-x-10--------10-x-x----|---------12-x-x-12--------12-x-x----|
D |-11--11--11-x-x-11-11-11--11-x-x-13-|-13--13--13-x-x-13-13-13--13-x-x-10-|
A |-11--11--11-x-x-11-11-11--11-x-x-13-|-13--13--13-x-x-13-13-13--13-x-x-8--|
E |-9---9---9--x-x-9--9--9---9--x-x-11-|-11--11--11-x-x-11-11-11--11-x-x-8--|

    Fm                               G                            C#
e |---------8--x-x-8---------8--x-x---|-------3-x-x-3------3-x-x----|
B |---------9--x-x-9---------9--x-x---|-------3-x-x-3------3-x-x----|
G |---------10-x-x-10--------10-x-x---|-------4-x-x-4------4-x-x----|
D |-10--10--10-x-x-10-10-10--10-x-x-5-|-5--5--5-x-x-5-5-5--5-x-x-11-|
A |-8---8---8--x-x-8--8--8---8--x-x-5-|-5--5--5-x-x-5-5-5--5-x-x-11-|
E |-8---8---8--x-x-8--8--8---8--x-x-3-|-3--3--3-x-x-3-3-3--3-x-x-9--|

    C#                                C
e |------------x-x-9---------9--x-x----|
B |------------x-x-9---------9--x-x----|
G |------------x-x-10--------10-x-x----|
D |-11--11--11-x-x-11-11-11--11-x-x-10-|
A |-11--11--11-x-x-11-11-11--11-x-x-10-|
E |-9---9---9--x-x-9--9--9---9--x-x-8--|


Transition avec couplet suivant et aussi juste avant la fin

    C                                    Fm
e |-------------------|-----------8--x-x---|
B |-------------------|-----------8--x-x---|
G |-------------------|-----------9--x-x---|
D |-10---10---10---10-|-10---10---10-x-x-8-|
A |-10---10---10---10-|-10---10---10-x-x-8-|
E |-8----8----8----8--|-8----8----8--x-x-8-|

ou
Transition avec pont

    C
e |----------------|---------8--------|
B |----------------|---------8--------|
G |----------------|---------9--------|
D |-10--10--10--10-|-10--10--10-------|
A |-10--10--10--10-|-10--10--10-------|
E |-8---8---8---8--|-8---8---8--------|


Second couplet :

    Fm                D#                     Bm                    C#
e |----------8--8-------|-----------11-11------|-----------13-13-----|------9--9------|
B |----------9--9-------|-----------11-11------|-----------14-14-----|------9--9------|
G |----------10-10------|-----------12-12------|-----------15-15-----|------10-10-----|
D |-8^10-10--10-10-x-11-|-11^13-13--13-13-x-13-|-13^15-15--15-15-x-9-|-9^11-11-11-x-8-|
A |-8----8---8--8--x-11-|-11^13-13--13-13-x-13-|-13----13--13-13-x-9-|-9^11-11-11-x-8-|
E |-8----8---8--8--x-11-|-11----11--11-11-x-13-|-13----13--13-13-x-9-|-9----9--9--x-8-|

    C#           G#                 C                                   Fm
e |------8--8------|--------4-4------|----------------|---------8--8------|
B |------9--9------|--------4-4------|----------------|---------8--8------|
G |------10-10-----|--------5-5------|----------------|---------9--9------|
D |-8^10-10-10-x-4-|-4^6-6--6-6-x-10-|-10--10--10--10-|-10--10--10-10-x-8-|
A |-8----8--8--x-4-|-4^6-6--6-6-x-10-|-10--10--10--10-|-10--10--10-10-x-8-|
E |-8----8--8--x-4-|-4---4--4-4-x-8--|-8---8---8---8--|-8---8---8--10-x-8-|

    Fm                D#                     Bm                    C#               G#                D#
e |----------8--8-------|-----------11-11------|-----------13-13-----|------9--9------|--------4-4------|
B |----------9--9-------|-----------11-11------|-----------14-14-----|------9--9------|--------4-4------|
G |----------10-10------|-----------12-12------|-----------15-15-----|------10-10-----|--------5-5------|
D |-8^10-10--10-10-x-11-|-11^13-13--13-13-x-13-|-13^15-15--15-15-x-9-|-9^11-11-11-x-4-|-4^6-6--6-6-x-11-|
A |-8----8---8--8--x-11-|-11^13-13--13-13-x-13-|-13----13--13-13-x-9-|-9^11-11-11-x-4-|-4^6-6--6-6-x-11-|
E |-8----8---8--8--x-11-|-11----11--11-11-x-13-|-13----13--13-13-x-9-|-9----9--9--x-4-|-4---4--4-4-x-11-|

    D#                                                       G#
e |-----------11-11------|----------------|--------------------|
B |-----------11-11------|----------------|--------------------|
G |-----------12-12------|----------------|--------------------|
D |-11^13-13--13-13-x-13-|-11--11--11--11-|-11--11--11---------| ... Refrain
A |-11^13-13--13-13-x-13-|-11--11--11--11-|-11--11--11---------|
E |-11----11--11-11-x-13-|-9---9---9---9--|-9---9---9-^11=-x-4-|

Pont :

    Fm                                                    Bbm
e |--------------------------|--------------------------|----------------------------|
B |-------9---t--t-----9---t-|-------8---t--t-----8---t-|--------11--t--t------11--t-|
G |-------10--t--t-----10--t-|-------10--t--t-----10--t-|--------10--t--t------10--t-|
D |--------------------------|--------------------------|----------------------------|
A |-8---------------8--------|-7---------------7--------|-10---------------10--------|
E |--------------------------|--------------------------|----------------------------|

    D#                               Fm                                   E
e |----------------|---------11-x-x----|---------8--x-x-8---------8--x-x---|
B |----------------|---------11-x-x----|---------9--x-x-9---------9--x-x---|
G |----------------|---------12-x-x----|---------10-x-x-10--------10-x-x---|
D |-----13--13--13-|-13--13--13-x-x-10-|-10--10--10-x-x-10-10-10--10-x-x-2-|
A |-----13--13--13-|-13--13--13-x-x-8--|-8---8---8--x-x-8--8--8---8--x-x-2-|
E |-11--11--11--11-|-11--11--11-x-x-8--|-8---8---8--x-x-8--8--8---8--x-x-0-|

    E                         Bbm                                  D#
e |-------0-x-x-0------0-x-x----|---------x--x-x-x---------x--x-x----|
B |-------0-x-x-0------0-x-x----|---------11-x-x-11--------11-x-x----|
G |-------1-x-x-1------1-x-x----|---------10-x-x-10--------10-x-x----|
D |-2--2--2-x-x-2-2-2--2-x-x-11-|-11--11--11-x-x-11-11-11--11-x-x-13-|
A |-2--2--2-x-x-2-2-2--2-x-x-10-|-10--10--10-x-x-10-10-10--10-x-x-13-|
E |-0--0--0-x-x-0-0-0--0-x-x-x--|-x---x---x--x-x-x--x--x---x--x-x-11-|

    D#                                C                                    Fm
e |---------11-x-x-11--------11-x-x----|----------------|---------8--8--8----|
B |---------11-x-x-11--------11-x-x----|----------------|---------8--8--8----|
G |---------12-x-x-12--------12-x-x----|----------------|---------9--9--9----|
D |-13--13--13-x-x-13-13-13--13-x-x-10-|-10--10--10--10-|-10--10--10-10-10-8-|
A |-13--13--13-x-x-13-13-13--13-x-x-10-|-10--10--10--10-|-10--10--10-10-10-8-|
E |-11--11--11-x-x-11-11-11--11-x-x-8--|-8---8---8---8--|-8---8---8--8--8--8-|

    Fm                                C#                                      C
e |----------------|---------8--8--8----|----------------|---------9--9--9-----|
B |----------------|---------9--9--9----|----------------|---------9--9--9-----|
G |----------------|---------10-10-10---|----------------|---------10-10-10----|
D |-10--10--10--10-|-10--10--10-10-10-9-|-11--11--11--11-|-11--11--11-11-11-10-|
A |-8---8---8---8--|-8---8---8--8--8--9-|-11--11--11--11-|-11--11--11-11-11-10-|
E |-8---8---8---8--|-8---8---8--8--8--9-|-9---9---9---9--|-9---9---9--9--9--8--|

    C                                 G#
e |----------------|---------8--8--8----|
B |----------------|---------8--8--8----|
G |----------------|---------9--9--9----|
D |-10--10--10--10-|-10--10--10-10-10-6-| au refrain
A |-10--10--10--10-|-10--10--10-10-10-6-|
E |-8---8---8---8--|-8---8---8--8--8--4-|

FIN :

    Fm                D#                     Bm                    C#               G#                D#
e |----------8--8-------|-----------11-11------|-----------13-13-----|------9--9------|--------4-4------|
B |----------9--9-------|-----------11-11------|-----------14-14-----|------9--9------|--------4-4------|
G |----------10-10------|-----------12-12------|-----------15-15-----|------10-10-----|--------5-5------|
D |-8^10-10--10-10-x-11-|-11^13-13--13-13-x-13-|-13^15-15--15-15-x-9-|-9^11-11-11-x-8-|-4^6-6--6-6-x-11-|
A |-8----8---8--8--x-11-|-11^13-13--13-13-x-13-|-13----13--13-13-x-9-|-9^11-11-11-x-8-|-4^6-6--6-6-x-11-|
E |-8----8---8--8--x-11-|-11----11--11-11-x-13-|-13----13--13-13-x-9-|-9----9--9--x-8-|-4---4--4-4-x-11-|

    D#                 C#
e |-----------11-11------|----------------|----------------|----------------|
B |-----------11-11------|----------------|----------------|----------------|
G |-----------12-12------|----------------|----------------|----------------|
D |-11^13-13--13-13-x-11-|-11--11--11--11-|-11--11--11--11-|-11--11--11--11-|
A |-11^13-13--13-13-x-11-|-11--11--11--11-|-11--11--11--11-|-11--11--11--11-|
E |-11----11--11-11-x-9--|-9---9---9---9--|-9---9---9---9--|-9---9---9---9--|

    C#                                         Fm
e |---------------------------9----9--|--------1--------||
B |----------------------9----9----9--|--------1--------||
G |-------------10---10--10---10---10-|--------1--------||
D |-11--11--11--11-|-11--11---11---11-|--------3--------||
A |-11--11--11--11-|-11--11---11---11-|--------3--------||
E |-9---9---9---9--|-9---9----9----9--|--------1--------||

Paroles

Tous mes potes se plaignent
Tous logés, à la même enseigne
Ils ne font plus l'amour, tous les jours

Si c'est une fois par semaine ou
Deux fois par mois à peine
Quand ce n'est pas trois fois par an
J'aim'rais pouvoir en dire autant

Mais toi chérie, t'abuses
Je suis désolé si je m'excuse
Partout, tout l'temps t'as envie
Tu m'demandes jamais mon avis
Mais toi chérie, ça t'amuse
Je suis désolé si je refuse
Partout tout l'temps on le fait mais
Tu m'demandes jamais

On pourrait se dire des choses
Plutôt que de s'en faire
Tu sais, des fois, on pourrait dormir
On pourrait se faire une pause
Entre le partage des tâches ménagères
Je t'ai déjà dit, que j'aimais lire

Mais toi chérie, t'abuses
Je suis désolé si je m'excuse
Partout, tout l'temps t'as envie
Tu m'demandes jamais mon avis
Mais toi chérie, ça t'amuse
Je suis désolé si je refuse
Partout tout l'temps on le fait mais
Tu m'demandes jamais

Tu conviendras que j'ai tenté
De garder l'rythme, j'ai tenu l'coup
Dans nos rapports à la normale
Aux limites de ma santé morale
Si je m'en suis beaucoup tiré
Du coup de la panne je t'avoue
Que si tu sens que je t'évites
C'est plus de peur que de mal

Tous mes potes sont chanceux
Comblés, sereins, heureux
Ils ne font plus l'amour, tous les jours

Mais toi chérie, t'abuses
Je suis désolé si je m'excuse
Partout, tout l'temps t'as envie
Tu m'demandes jamais mon avis
Mais toi chérie, ça t'amuse
Je suis désolé si je refuse
Partout tout l'temps on le fait mais
Tu m'demandes jamais si ça m'le fait